a b c d e f g h i j k l m n o p q r s t u v w x y z 0-9

Por Que Es Tan Cruel El Amor

Ricardo Arjona

			
este es mi primer tab
lo dedico a mi madre que ha estado siempre conmigo
a todos mis amigos
y en especial a Natalia que la quiero mucho


intro


E----------------------------------------------
A----------------------------------------------
D----------------------------------------------
G----------------------------------------------
B----------------------------------------------
e--7-9-10-10s12-12-10-10-9-9-7-7s9-------------


E----------------------------------------------
A----------------------------------------------
D----------------------------------------------
G----------------------------------------------
B----------------------------------------------
e--7-9-10-10s12-12-10-10-9-9-7-7-5-------------


a mediados de la canción


E----------------------------------------------
A----------------------------------------------
D----------------------------------------------
G----------------------------------------------
B----------------------------------------------
e--4-5-7-7-9-10-10s12-12-10-10-9-9s10-7-7s9----


E----------------------------------------------
A----------------------------------------------
D----------------------------------------------
G----------------------------------------------
B----------------------------------------------
e--7-9-10-10s12-12-10-10-9-9-7-7-5-------------


la parte final


E----------------------------------------------
A----------------------------------------------
D----------------------------------------------
G----------------------------------------------
B----------------------------------------------
e--5-7-9-10-10s12-12-10-10-9-9-7-7s9-----------


E----------------------------------------------
A----------------------------------------------
D----------------------------------------------
G----------------------------------------------
B----------------------------------------------
e--7-9-10-10s12-12-10-10-9-9-7-7-5-------------


E----------------------------------------------
A----------------------------------------------
D----------------------------------------------
G----------------------------------------------
B--2-3-5---------------------------------------
e--------4-5-7-7-9-10s12-12s14-12-12-10-10-9---


E----------------------------------------------
A----------------------------------------------
D----------------------------------------------
G----------------------------------------------
B----------------------------------------------
e--7-7s9-9-9-9---------------------------------


E----------------------------------------------
A----------------------------------------------
D----------------------------------------------
G----------------------------------------------
B----------------------------------------------
e--7-9-10-10s12-12-10-10-9-9-7-7-5-------------


E----------------------------------------------
A----------------------------------------------
D----------------------------------------------
G----------------------------------------------
B--2-3-5-2-3-5---------------------------------
e--------------4-5-7-4-5-7-7-9-10--------------


E----------------------------------------------
A----------------------------------------------
D----------------------------------------------
G----------------------------------------------
B----------------------------------------------
e--7-9-10-10s12-12s14-12-10-9-9-7-7-5----------


cualquier duda o mejora de este tab me lo hacen
saber a mi correo r_efren86@hotmail.com

Fuente original ATAME [www.atame.org]
Colaborador original: efrén torres [r_efren86@hotmail.com]

Fuente: tusacordes.com