a b c d e f g h i j k l m n o p q r s t u v w x y z 0-9

No Sirve De Nada

Ricardo Arjona

			
Ya esta perfecta...

"Inche Lupita deveras que te pasas pero bueno
 muy mi querer y te vale
 a la ching...entonces
 aunque dejaste de ser un recuerdo constante
 nunca te olvidé
 y como yo ninguna y lo sabes bye..."




Intro
E-|----------------------2--------------|-
B-|-------2h3--------2------------------|-
G-|-----4----4----4----4----------------|-
D-|---4--------4------------------------|-
A-|-2-----------------------------------|-
E-|-------------3---[Una vez más repeat]|-

 Conozco...
E-|-------------------------------------|-
B-|-------2h3------------3--------0h2---|-
G-|-----4-----4------------0-----2------|-
D-|---4---------4----0---------2--------|-
A-|-2-----------------------0-----------|-
E-|---------------3---------------------|-

  Se de...
E-|--------------------3--------0-------|-
B-|-------2h3---------------------2-----|-
G-|-----4-----4-----0----0---2----------|-
D-|---4---------4-----------------------|-
A-|-2----------------------0------------|-
E-|---------------3---------------------|-

            Descubri...
E-|-------------------------------------|-
B-|-------2h3-----------0----------2----|-
G-|-----4-----4-----0-----0-----2----2--|-
D-|---4---------4--2--------0--2-------2|-
A-|-2-------------2-----------0---------|-
E-|-------------------------------------|-

         Y el...
E-|-------------------3-------0---------|-
B-|-------2h3-------------------2-------|-
G-|-----4-----4-----0---0---2-----------|-
D-|---4---------4-----------------------|-
A-|-2----------------------0------------|-
E-|---------------3---------------------|-


--[Lo que esta en parentesis va rasgueado]

                               Y de que...?
E-|-------------2-----0-----------3-------2----0h2----
B-|-------2h3-----2-----0-----------3----3-3-------3--
G-|-----4-----4-----4-----2-----0-------2----2-------2
D-|---4---------------------2----------0--------------
A-|-2---------------------------------------------------
E-|--------------------------3----3---------------------

            No...
E-|------------------------2------------|-
B-|-------2----------2h3-----2---2h3----|-
G-|-----2----------4-----4-----4-----4--|-
D-|---2----------4---------------------4|-
A-|-0----------2------------------------|-
E-|-------------------------------------|-

 Conozco...
E-|-------------------------------------|-
B-|-------2h3------------3--------0h2---|-
G-|-----4-----4--------0---0-----2------|-
D-|---4---------4---------------2-------|-
A-|-2-----------------------0-----------|-
E-|---------------3---------------------|-

  Se que...
E-|-------------------3-------0---------|-
B-|-------2h3-------------------2-------|-
G-|-----4-----4-----0---0---2-----------|-
D-|---4---------4-----------------------|-
A-|-2---------------------0-------------|-
E-|---------------3---------------------|-

           Se cuando...
E-|-------------------------------------|-
B-|-------2h3-----------3----------2----|-
G-|-----4-----4-----------0-----2----2--|-
D-|---4---------4-----0--------2-------2|-
A-|-2-------------------------0---------|-
E-|---------------3---------------------|-

     Se que...
E-|-------------------3-------0---------|-
B-|-------2h3-----------3-------2-------|-
G-|-----4-----4-----0-------2-----------|-
D-|---4---------4-----------------------|-
A-|-2----------------------0------------|-
E-|---------------3---------------------|-

                               Y de que...?
E-|-------------2-----0-----------3-------2----0h2----
B-|-------2h3-----2-----0-----------3----3-3-------3--
G-|-----4-----4-----4-----2-----0-------2----2-------2
D-|---4---------------------2----------0--------------
A-|-2---------------------------------------------------
E-|--------------------------3----3---------------------

             No...
E-|----------------------------------2---------
B-|-------2----------2h3-----2h3-------2-------
G-|-----2----------4-----4-------4-------4-----
D-|---2----------4---------4-------4-----------
A-|-0----------2-------------------------------
E-|--------------------------------------------

   Si tus            aventura. me... resista
E-|------3---------------2---0---2-------
B-|--------3-----2------3---2---3-2h3----
G-|---0--------2-------2---2---4-4---4---
D-|-----------2-------0---2---4-4------4-
A-|----------0-------0---0---2-----------
E-|-3------------------------------------------


   Que hasta....         tipo..crees..soy
E-|------3---------------2---0---2-------
B-|--------3-----2------3---2---3-2h3----
G-|---0--------2-------2---2---4-4---4---
D-|-----------2-------0---2---4-4------4-
A-|----------0-------0---0---2-----------
E-|-3------------------------------------------


    Para...motivos...      para...  vida
E-|-----3-----2----0h2------0----------------
B-|----------3-3------3--------------2h3-----
G-|--0------2----2-----2--2--------4-----4---
D-|--------0-------------2-------4---------4-
A-|-----------------------0------2-------------
E-|-3------------------------------------------


    Para...tajo de...  locura
E-|-----3-----2---0-----0---0--------------
B-|----------3-----3---2------------2h3----
G-|--0------2----2----2----2------4-----4--
D-|--------0---------2----------4---------4
A-|-------------------0---------2------------
E-|-3------------------------------------------


   de quererte...                  y no sirva de nada
E-|------------------------2-----0------------
B-|-----3-------3---------3---2-------------
G-|-------0---2------2-------2--------------
D-|--0------0---------------2---------------
A-|--------------------------0----------------
E-|-3-------------------------------------------


Guitarra eléctrica
E-|-----------------------------------------------5p3-----
B-|----------------------------3-----------3-3/5------5p3-
G-|------------------------------4--4-4/6-----------------
D-|---------------2--------4-4----------------------------
A-|-2-2h4/5p4-4h5---5-5/7---------------------------------
E-|-------------------------------------------------------


Coro

D5          A5         B5
No sirve de nada este delirio
      F#5              G5          D5               B5  A5
de aferrarnos a una historia que murio sin darnos cuenta
D5          A5          B5
No sirve de nada este castigo
     F#5             G5             D5             B5  A5
de buscar en lo imposible algún borrón y cuenta nueva
G5                D5                A5
no sirve de nada, no sirve de nada, no sirve de nada...

                                  |Distorcionado
                                  |arrastrando hacia atras
E-|--------------------------------2--
B-|-------------------------------3---
G-|------------------------------4----
D-|----------------2---------4-4--------
A-|-2-2h/4h5p4-4h5---5-5/7--------------
E-|-------------------------------------


B5          G5                    A5               B5
Conosco las dudas que te llevan siempre al mismo lugar
               G5                A5                    B5
se que estoy pagando facturas pendientes de algo que pasó
             E5                  F#5            B5
se que te desgastas buscandole absurdos a la realidad
                G5                  A5               B5 G5
se que aveces dices cuando tienes ganas de no decir nada
             D5     A5           B5
y de que te sirve...no sirve de nada


B5           G5                     A5                       B5
Hacen falta dos para hallar la ecuación de encontrar un culpable
             G5               A5            B5
hace falta tiempo para tener ganas de desperdiciarlo
              E5           F#5          B5
hacen falta sueños para aferrarse a la realidad
            G5                A5                        B5 G5
hace falta todo y al final resulta que siempre es lo mismo
              D5     A5           B5   -- A5
y de que nos sirve...no sirve de nada...[Coro x2]


Acordes  654321
         EADGBE
B5       X244XX ó 799XXX
F#5      244XXX
G5       355XXX
A5       577XXX
E5       X799XX
D5       X577XX


Dudas,quejas,aclaraciones y sugerencias a mi correo
Si hay un error de transcripción haganmelo saber...graciasFuente: Tus acordes