a b c d e f g h i j k l m n o p q r s t u v w x y z 0-9

Mojado

Ricardo Arjona

			
e.---8-10-11-|-101110-8-10-11-13-10-|-8108----8-10-11-8-|
B.-8---------|------------------------|--------11-----------|
G.-----------|------------------------|---------------------|
D.--------10-|---------------------8--|-------------------6-|
A.-----------|------------------------|---------------------|
E.-----------|------------------------|---------------------|


e.---10--8-7--------|
B.------------------|
G.-10---8-----------|
D.---------5--------|
A.------------------|
E.------------------|


e.--------8p7----------8p7---------8p7--------8------
B.-----8-------8------------8----------8-------------
G.--7-------------7------------7---------7-----------
D.---------------------------------------------------
A.---------------------------------------------------
E.---------------------------------------------------


e.------------------------------------
B.------------------------------------
D.------------------------------------
G.------------------------------------
A.----------------3-------------------
E.-------3h4h6------------------------

Fuente: Tusacordes