a b c d e f g h i j k l m n o p q r s t u v w x y z 0-9

Mojado

Ricardo Arjona

			
e----------8---10/11--11--10h11p10--8--10--11/13--10
B-------8-------------------------------------------
G---------------------------------------------------
D---------------------------------------------------
A---------------------------------------------------
E---------------------------------------------------
  


e----------8--6--8--10-10/11--8--------10-------8---
B---------------------------------------------------
G----------------------------------10-------8-------
D---------------------------------------------------
A---------------------------------------------------
E---------------------------------------------------



e--------8p7----------8p7---------8p7--------8------
B-----8-------8------------8----------8-------------
G--7-------------7------------7---------7-----------
D---------------------------------------------------
A---------------------------------------------------
E---------------------------------------------------


e------------------------------------B------------------------------------
D------------------------------------
G------------------------------------
A--------------2h3-------------------
E-------3h4--------------------------

Fuente: tusacordes.com