a b c d e f g h i j k l m n o p q r s t u v w x y z 0-9

Me Dejaste

Ricardo Arjona

G
D
Em
C
Am
			
INTRO:

PRIMERO EMPIESA EL PIANO Y LE SIGUE LA GUITARRA CON ESTO:


           G        D         Em     D      C         D
e--2-3-5--5/7--7-7-5--10-10--3-5-3--3-2-3-2-3-----------------/
B----------------------------------------------3--0-1---1/3---/
G-----------------------------------------------------2-------/
D-------------------------------------------------------------/
A-------------------------------------------------------------/
E-------------------------------------------------------------/


La otra guitarra lleva esto mientras la otra hace el punteo.
 G           D             Em             D
6|-3--------------------------0-----------------------------------
5|------------------------------2---------------------------------
4|---------------0----------------2----------0--------------------
3|----0-------0----2-------2--------------0----2-------2----------
2|------3---3--------3---3--------------0--------3---3------------
1|--------3------------2--------------0------------2--------------
   C             D           Dsus4      D
6|----------------------------------------------------------------
5|-3-------------------------------------0------------------------
4|---2-----------0-----------0-------------0----------------------
3|-----0------0----2-------2---2-------2-----2---------2-0--------
2|----------1--------3---3-------3---3---------3-----3------------
1|--------0------------2-----------2-------------3-2--------------



 Y aki empieza el verso:


 me dejaste un beso en la gabeta y un brassiere tirado en el sofa
6|-3---------------------0-----------------------------------------
5|-------------------------2-------------------3-------------------
4|----------0----------------2--------0----------2-----------------
3|----0-------2-------2-------------0---2----2-----0-----0---------
2|------3-3-----3---3-------------0-------3----------1-1-----------
1|------3---------2-------------0---------2----------0-------------
    G         D        Em        D      C   


   un ataque de celos en la mesa y tu perfume...
6|--------------------------3--------------------------------------
5|-2-----------0---------------------------------------------------
4|---0-----------2-------------------------------------------------
3|-----0-----0-----2-----2-----2---2-------------------------------
2|---------1-----------1---------1---------------------------------
1|-------0-----------0-----------0---------------------------------
    Em+5      Am         Am/G

   pegado en la pared.
6|-2----------------------------------------
5|----------3---------2---------------------  esta parte 
4|------------------------------------------   se toca
3|----2--------2---------2---------2-0------     muy
2|------3--------3---------3-----3----------   rapido ok?
1|--------3--------2---------3-2------------
    Dsus4/F# D/C   D/B

 me dejaste el mundo de cabeza y un grito en el contestador
6|-3---------------------0--------------------------------------------
5|-------------------------2-------------------3----------------------
4|----------0----------------2--------0----------2--------------------
3|----0-------2-------2-------------0---2----2-----0-----0------------
2|------3-3-----3---3-------------0-------3----------1-1--------------
1|------3---------2-------------0---------2----------0----------------
    G         D        Em        D      C


   que anunciaba con toda certeza que esta vez...
6|--------------------------3-----------------------------------------
5|-2-----------0------------------------------------------------------
4|---0-----------2----------------------------------------------------
3|-----0-----0-----2-----2-----2---2----------------------------------
2|---------1-----------1---------1------------------------------------
1|-------0-----------0-----------0------------------------------------
     Em+5      Am         Am/G


   se te acabo el amor.
6|-2----------------------------------------
5|----------3---------2---------------------  esta parte 
4|------------------------------------------   se toca
3|----2--------2---------2---------2-0------  igual de rapido
2|------3--------3---------3-----3----------  ke la primera
1|--------3--------2---------3-2------------
    Dsus4/F# D/C   D/B

 me dejaste un pero y un por que, unos cuantos insultos y un adios
6|-3---------------------0--------------------------------------------
5|-------------------------2-------------------3----------------------
4|----------0----------------2--------0----------2--------------------
3|----0-------2-------2-------------0---2----2-----0-----0------------
2|------3-3-----3---3-------------0-------3----------1-1--------------
1|------3---------2-------------0---------2----------0----------------
     G         D        Em        D      C   


   una duda flotando en mi cabeza y la promesa...
6|--------------------------3------------------------------------------
5|-2-----------0-------------------------------------------------------
4|---0-----------2-----------------------------------------------------
3|-----0-----0-----2-----2-----2---2-----------------------------------
2|---------1-----------1---------1-------------------------------------
1|-------0-----------0-----------0-------------------------------------
     Em+5      Am         Am/G


   de no volver jamas.
6|-2-------------------------------------------------------------------
5|----------3---------2------------------------------------------------  
4|---------------------------------------------------------------------   
3|----2--------2---------2---------2-0---------------------------------     
2|------3--------3---------3-----3-------------------------------------   
1|--------3--------2---------3-2---------------------------------------
    Dsus4/F# D/C   D/B


   lo que siento lo guardo en la nevera, por si un dia decides regresar.
6|--------------------0-------------------------------------------------
5|-2--------------------2--------------3-------------0------------------ 
4|------------------------2----------------------------0----------------   
3|----2---2----2---2--------------0-------0---0----------2--------------     
2|------0---0----0--------------0---0-------3---3----------3------------   
1|----------2-----------------0-------------------0----------2----------
    B7                Em            C9          D


D9 D  G                  D                      C       G
 Que hago con este cementerio de sueños y con toda mi mitad
      D               C                    G 
 con esta deuda de afectos y con tanta libertad
                       D           C          G
 Que hago con este insomnio y mi falta de apetito
   D                 C                                 G
 donde meto los reproches y tu foto si la pongo o la quito.



AKI LE SIGUEN LOS MISMOS ACORDE QUE EN EL INTRO.
   G,  D,   Em,  D,  C,  D.  Dsus4,  D  

  
LOS MISMOS ACORDES CON LA MISMA TABLATURA LA PUEDEN TOCAR 
EN LOS SIGUIENTES VERSOS...

 G               D            Em   
 Me vendiste un sueño al dos por uno
              D          C
 y me dejaste solo realidad
          Em        Am
 una casa minada de recuerdos
     Am/G
 y el dentifrico
   D/F#  D/C  D/B  D
 aplastado a la mitad.

  G               D        Em   
 Me dejaste el tiempo que perdi
             D          C
 te llevaste mi despertador
           Em+5         Am
 te llevaste la ropa interior
           Am/G         Dsus4/F#  D/C  D/B  D
 que te di para quitartela

  B7                             Em
 Lo que siento sera cuestion de tiempo
  C9            D
 para ver si se queda
       G
 o se va
 
 Que hago con este cementerio.........  dos veces


ESTA CANSION VA DEDICADA PARA EL AMOR DE MI VIDA MIDIAN ELISA SALINAS... HASTA CATACAMAS, OLANCHO. HONDURAS...
DE:FRANK A.SANTOS
 i just wanna be able to go sleep, and wake up like normal person ... you know, and not hear that voice... you know my consciousness, the pain of your goodbye ... loneliness i go crazy baby.

Fuente: Tusacordes