a b c d e f g h i j k l m n o p q r s t u v w x y z 0-9

La Mujer Que No Soņe

Ricardo Arjona

			
INTRO2 VECES

   DO                           LAm
E--------------------0-----------------------------0-------------
B--------1-----3-------1----1---------1------3-------1---1-------
G------0---0-----0-------0----------2----2-----2-------2---------
D----2-------2-----2--------------2--------2-----2---------------
A--3----------------------------0--------------------------------
E----------------------------------------------------------------
  <-----------fig 1---------->
______________________________________________
VERSO
fig 1
La delente es la pasada de moda

  SOL/SI        LAm
E----------------------0-------------------------------
B-------3----------------1----1------------------------
G-----0---0---------2-------2--------------------------
D---0-------0-----2------------------------------------
A-2-------------0--------------------------------------
E------------------------------------------------------
La aburrida y la intelectual

  SOL6?         FA                 DO
E--------0-------------1-------------------------------
B------0---0--------1-----1-----1---------1--------------
G----0-------0----2----------2----------0---0---0--------
D-------------------------------------2-------2--------
A-----------------------------------3------------------
E-3-------------1--------------------------------------
La que prefiere una biblioteca a una discoteca

  SOL/SI         LAm
E------------------------------------0-----------------
B-------3---------------1------3-------1---1-----------
G-----0---0---0------2-----2-----2-------2-------------
D---0-------0------2---------2-----2--------------------
A-2--------------0-------------------------------------
E------------------------------------------------------
Es con la que vivo yo
________________________________________________________________
VERSOTOCA IGUAL QUE PRIMER VERSO
La que todos tachan de fea

Y en el bus nadie le ceda lugar

La que es mas que una precea para ensenar

 FA      SOL      DO
E----1-------3---------------------------0-------------
B---1-1-1---3-3-3--------1------3-----------1---1------
G--2---2---0---0-------0---0-------0----------0--------
D--------------------2-------2--------2----------------
A------------------3-----------------------------------
E-1-------3--------------------------------------------
  <-----------------------fig 2------------------>
Jamas sera modelo de television

con fig2
Porque no hacen anuncias para el corazon

con fig 2
Me gusta porque es autentica y vive sin recetas

con fig 2
de esas que tratan de vestir al amor de etiqueta

 FA       SOL     DO           SOL/SI     LAm
E----1-------3-----------------------------------------
B---1-1-1---3-3-3--------1------------3---------1------
G--2---2---0---0-------0---0--------0---0-----2---2---2
D--------------------2-------2----0---------2-------2--
A------------------3------------2---------0------------
E-1-------3--------------------------------------------
He venido parar con la mujer que no sone jamas

 FA       SOL
E----1-------3----
B---1-1-1---3-3-3-
G--2---2---0---0--
D-----------------
A-----------------
E-1-------3-----
Pero tambien jamas

fui tan feliz
              REPITE INTRO 2 VECES Y SIGUE CON SEGUNDO VERSO
La que ya ni se pinta la boca
de fraudada de coquetear
la que es mas que una aguja para enebrar
si su enemigo parece acechando al espejo
ella le da una sonrisa y aniquila el complejo
me gusta porque es autentica y vive sin recetas
de esas que tratan de vestir al amor de etiqueta
he venido parar con la mujer que no sone jamas
es una estrella fugaz
me gusta porque es autentica.....
SE TERMINE CON EL INTRO NO SE CUANTAS VECES

Fuente original ATAME [www.atame.org]
Colaborador original: james graham [james.w.graham@navy.mil]

Fuente: tusacordes.com