a b c d e f g h i j k l m n o p q r s t u v w x y z 0-9

Jesus Es Verbo No Sustantivo

Ricardo Arjona

			
Este rekinto es especial dado a que es lo primero ke saco de Arjona
espero y sea entendible, saludos desde Leon Guanajuato. México......

e----------------10-----9-7-9---------------------------------------------
B-10-7-8-10-10----10---------10-----------------------------------------
G--------------------------------------------------------------------------
D---------------------------------------------------------------------------
A--------------------------------------------------------------------------
E--------------------------------------------------------------------------


e------------7-5-3-5-2-----------3-0-2-5-3-5-2--7-5-4-5-7---12-10-9-
B7------7-7-----------------------------------------------------5----------
G--7-9------------------4-4-6-7------------------4------------------------
D---------------------------------------------------------------------------
A-----------------------------------------------------------------------------
E-----------------------------------------------------------------------------

Y esto es todo, el requinto se acompaña con las siguientes notas

D-A7-Bm-A7-G-Bm-G-A7.

Esto es todo, el arpegio ya se lo saben supongo y si no es asi aqui tienen el
como va.

esto se aplica a todas las notas.

el orden de punteo es el siguiente
4° cuerda
3°cuerda
2°cuerda
1°cuerda
3°cuerda
2°cuerda
3°cuerda
y esto es en todas las notas.

Fuente original ATAME [www.atame.org]
Colaborador original: David Ramirez Valadez [david_ramirez_valadez@hotmail.com]

Fuente: tusacordes.com