a b c d e f g h i j k l m n o p q r s t u v w x y z 0-9

Historia De Taxi

Ricardo Arjona

			
|-----------1--0---------------------1-1/3-----------------|
|--------3-------1--------3-------3--------1-------3-------|
|-----2------------2----2-------2------------2---2---------|
|--0------------------0-------0-----------------0----------|
|----------------------------------------------------------|
|----------------------------------------------------------|
Esa parte se toca dos veces.De ahi sigue esto:



|--1-0-----------1-0-------1-0-------------1-0-------------|
|-------1-0-1--------1----------1-0-1/3--------1-----------|
|----------------------------------------------------------|
|----------------------------------------------------------|
|----------------------------------------------------------|
|----------------------------------------------------------|

Fuente original ATAME [www.atame.org]
Colaborador original: JORGE CONTRERAS [CYNICALJR@CS.COM]

Fuente: tusacordes.com