a b c d e f g h i j k l m n o p q r s t u v w x y z 0-9

Duele Verte

Ricardo Arjona

			
Pues este es el tab de esta cancion que habla sobre la infedilidad
y del sancho y mas bien son unos requintos porque la cancion lleva
ritmo ranchero. Bueno, aqui esta:


Intro:

1. ---0----3----2----0----3----2--0--|-2/3-7-3-|-1/2-5-2-0--|
2. ---1----3----3----1----3----3--1--|---------|------------|
3. ---0----4----2----0----4----2--0--|---------|------------|
4. ---2----5----0----2----5----0--2--|---------|------------|
5. ---3----5--0----3----5----0----3--|---------|------------|
6. -3----3---------------------------|---------|------------|

Versos: G D C Este ritmo se toca como ranchera, suena la cuerda 
y luego las demas

*Se toca lo de arriba y cambia el ritmo a balada hasta cuando dice:

Mientras yo caliento el banco de suplentes......

*Despues los acordes son: G D C (B7- Em)...


*Los acodes del coro son iguales: G D C

*Intermedio: Con trompetas acompañandolo.....

1. -0-0-0-0-0-0-3-3-3-3-3-3-2-2-2-0-0-0---|
2. -1-1-1-1-1-1-3-3-3-3-3-3-3-3-3-1-1-1---|
3. -0-0-0-0-0-0-4-4-4-4-4-4-2-2-2-0-0-0---|
4. -2-2-2-2-2-2-5-5-5-5-5-5-0-0-0-2-2-2---|
5. -3-3-3-3-3-3-5-5-5-5-5-5-0-0-0-3-3-3---|
6. -------------3-3-3-3-3-3---------------|

Ah, en el coro por ahí suena como una guitarra electrica con 
distorcion que toca esto:

1. ------
2. ------
3. ------
4. ------
5. –2/5--
6. ------

Ya la segunda vez que canta el coro, suena un bajo, pero la guitarra lo 
puede tocar asi:

Cierra puertas y ventanas....
1. ----------------|-------|
2. ----------------|-------|
3. ----------------|-------|
4. ----------------|-------|
5. --------2-5-----|-------|
6. -3--3-3-----2-3-|-2-2/3-|


Eso es todo. Dudas o comentarios a mi mail. Suerte!!!

Fuente original ATAME [www.atame.org]
Colaborador original: german ahumada [gere_walsh@hotmail.com]

Fuente: tusacordes.com