a b c d e f g h i j k l m n o p q r s t u v w x y z 0-9

Dime Que No

Ricardo Arjona

			
ROSALINDA UNA CANCION MAS DEDICADA A TI :-) Te quiero.

la tab fue complicada pero a hi esta ,, despues de varios meses de trabajo   
                                                                      
E||--0-----0-----0--|----------------|--0-----0------|------------------|
B||--------1---1----|--3-----3-----0-|--1-----1------|--1-----1-------1-|
G||--0--0----0------|-----0--4-0-----|--2--2---------|--2---2-------2---|
D||-----------------|----------------|---------------|--3-3-------3-----|
A||--3---------3----|--2---------2---|--0-------0----|------------------|
E||-----------------|----------------|------------3--|--1-------1-------|


                                                                     
--0-----0--------|----------------|-----------------|--0-----0------|
--------1-----1--|--3-----3-------|--1-----3---0-3--|--1-----1------|
--0--0------0----|--4--0--4----0--|--2-------0------|--0--0-------0-|
-----------------|--5-------------|--3--3-----------|---------------|
--3-------3------|----------------|-----------------|--3--------3---|
-----------------|--3--------3----|--1-----3--------|---------------|


                                                                     
----------------|--0-----0--------|----------------|--0-----0-------|
--3-----3-----0-|--1-----1--------|--1-----1-------|--1-----1-------|
--4--0--4---0---|--2--2--2-----2--|--2-----2-------|-----0-------0--|
--------5-------|-----------------|-----3-------3--|----------------|
--2-------2-----|--0-------0------|----------------|--3--------3----|
----------------|------------3----|--1--------1----|----------------|


                                                                      
----------------|--0-----0--------|----------------|-----------------|
--1-----1-----1-|--1-------1------|--3-----3-------|--1-----1--------|
--2-----2---2---|--0--0--------0--|--4--0--4----0--|--------2--------|
--3--3----3-----|-----------------|----------------|--2--2--------2--|
----------------|--3---------3----|--2--------2----|--0-------0------|
--3---------3---|-----------------|----------------|------------3----|


                                                                    
----------------|--0-----0-------|----------------|--0-----0-----0-|
--1-----1-------|--------1-------|--1-----1-----1-|--1-----1---1---|
--2-----2-------|--0--0-------0--|--2-----2---2---|--0--0----0-----|
--3--3-------3--|----------------|--3--3----3-----|----------------|
----------------|--3--------3----|----------------|--3-------------|
--1--------1----|----------------|--3-------------|----------------|


                                                                    
-----------------|---------------|----------------|----------------|
--0-----0-----0--|--1-----1------|--0-----0-------|--1-----1-------|
--7--0--7---0----|--2-----2------|--0-----0-----0-|--2-----2-------|
--5--------------|-----2-------2-|-----2------2---|--3--3-------3--|
-----------------|--0--------0---|----------------|----------------|
--7-------7------|---------------|--0-------0-----|--1--------1----|


                                                                       
--0-----0--------|-----------------|--0-----0-----0--|----------------|
--1-----1-----1--|--1-----1--------|--1-----1---1----|--0-----0-------|
--0--0------0----|--2-----2-----2--|--0--0----0------|--7--0--7----0--|
-----------------|--3--3------3----|-----------------|--5-------------|
--3-------3------|-----------------|--3--------------|----------------|
-----------------|--3-------3------|-----------------|--7--------7----|


                                                                     
-----------------|----------------|-----------------|--0-----0------|
--1-----1-----1--|--0-----0-------|--1-----1--------|--1-----1------|
--2-----2-----2--|--0-----0-------|--2-----2-----2--|--0--0-------0-|
--2--2------2----|--2--2-------2--|--3--3------3----|---------------|
--0-------0------|----------------|-----------------|--3--------3---|
-----------------|--0--------0----|--1-------1------|---------------|


                                                                   
-----------------|--0-----0-----0-|--------0-------|--2-----2-----|
--1-----1-----1--|--1-----0---0---|--1-----1----1--|--3-----3-----|
--2-----2---2----|--0--0--1-1-----|--2--2-----2----|--2--2-----2--|
--3--3----3------|----------------|----------------|--0-----------|
-----------------|--3-------------|--0-------------|--------------|
--3--------------|--------0-------|----------------|--------------|


                                                                
----------------|--------------|--0-----0-----|----------------|
--3-----3-------|--1-----1-----|--1-----1-----|--3-----3---0-3-|
--5--0--5----0--|--2-----2-----|--0--0--0--0--|--4--0--4-0-----|
--5-----5-------|--3--3-----3--|--------------|--5-------------|
----------------|--------------|--3-----------|----------------|
--3--------3----|--1-----------|--------------|--3-------------|


                                                                            
--0-----------0--|-----------------|----------------2--|--0-0---0-----0----|
--1----0----1----|-------0--3------|--2-3---3-----3----|--0---0-----0---0--|
--0--0-5--0------|--0--0--------0--|------2-----2------|-------------------|
-----------------|--4--------------|--0-------0--------|----------2--------|
--3--------------|--8--------------|--3----------------|--2----------------|
-----------------|------------3----|-------------------|-------------------|


                                                                           
---------0-------|------------------|---------------0--|---------3--------|
--1----1---------|------------------|--0----0-----1----|-------0---3-0----|
--0--2---------2-|------0-2--0---2--|-----0-5---0------|--2--0---------0--|
-----------------|----3------7-3----|--1---------------|------------------|
--0--------0-----|------------------|--3------3--------|--0---------------|
--3----------3---|--1---------------|------------------|------------------|


                                                                            
--------------0--|-----------------|--------2-------2--|----0---0-----0----|
-------0----1----|--------3-0---0--|--2-3---3-----3----|--4---0-----0---0--|
--0--0-5--0------|--0--0------0----|--2---2-----2------|--4----------------|
--0--------------|--3--------------|----------0--------|----------2--------|
--6--------------|--0--------------|-------------------|-------------------|
--8--------------|-----------------|--1----------------|--3----------------|


                                                                             
---------0--------|------------1------|-------0-------0--|------------------|
---------------1--|--1-------1--------|--0----------1----|-------0-3-----0--|
--0----5-----2----|--2-----2-------2--|-----0-0---0------|-----0---4---0----|
-----7------------|--6---3-------3----|--1---------------|--0---------------|
--0--------0------|----3--------------|--3------3--------|--3---------------|
--8---------------|-------------------|--1---------------|-----------3------|


                                                                              
--0-----------|--------0------|--0--------0----|-----------|--0-----0--------|
--1-----1-----|-----1----1----|--------1-------|--1--------|--1-------1---1--|
-----0--------|--0------------|--0--0--------2-|--5--------|-----0------0----|
--------------|---------------|----------------|-----------|-----------------|
-----------3--|---------------|--3-------------|-----------|--1--------------|
--------------|---------------|----------------|-----------|-----------------|


                                                                 
----------------|--0----------0-|-----------1----|--0-----------|
--------0-------|--------1------|--1-----1-------|--------1-----|
--2--0-------0--|-----2---------|--2--2-------2--|-----0--------|
----------------|---------------|----------------|--------------|
--2--------2----|--1--------0---|----------------|--1--------3--|
----------------|---------------|----------------|--3-----------|


                                                                    
---------------|----------------|--0--------------|----------------|
--3-----3------|--0--------0-3--|--------0-----1--|--------0-----0-|
--4--0-------0-|---------0------|--1--0--5---0----|--2--0------0---|
--------4------|----------------|--0--------------|----------------|
--1------------|----------------|----------3------|--2-------2-----|
-----------3---|-------3--------|-----------------|----------------|


                                                                  
----------------|--------1-------|--------0------|---------------|
--0-----------1-|--1-------1---1-|--0------------|--0-----3------|
--------5---2---|-----2------2---|-----0--0----0-|-----0-------0-|
-----7----------|----------------|--1------------|--3-----0------|
----------0-----|----------------|--3--------3---|--------5------|
--6-------------|--1-------------|---------------|--3--------3---|


                                                                                
------------------|-----------------|----2-----2-------2--|---0-0---4-----0----|
---------0-----1--|--0-----3-----0--|--------3-------3----|-------0-5---0---0--|
--0---0--5---0----|-----0--4---0----|------2-------2------|--------------------|
--10--------------|--3--------------|--0---------0--------|---4-------2--------|
--10-------3------|-----------------|---------------------|---7----------------|
------------------|----------3------|---------------------|--------------------|


                                                                
-----0----0----------|-------------1-0---|--------0-------0----|
----------------1----|------1----1-------|------1-------1------|
-----0-2--0---2---0--|------5--2-------5-|----0-------0------3-|
------------------7--|----7------------0-|-------------------4-|
---0-3------0-----11-|-------------------|----------3----------|
---------------------|-----------------4-|---------------------|


                                                             
---------------------|------0-------0----|-------3----------|
------0-3-----0-3----|------1-----1------|---------3-0------|
----0-------0------0-|----0-----0------0-|----0--------0--2-|
-------------------0-|-----------------0-|----------------7-|
-------------------6-|--------3--------3-|----------------0-|
----------3--------3-|-------------------|------------------|


                                                               
-----------2--------|----0---4-----0------|-------0------0----|
----3---3------3--0-|------0-0---0---0--0-|---1---1----1------|
------2------2----4-|---------------------|-----2----2------1-|
------------------2-|----------2----------|---2-------------2-|
--------------------|-------------------0-|-----------------6-|
--------------------|---------------------|-----------------1-|


                                                               
------------1--------|-------0-------0----|-----------------0-|
----------1--------0-|-------1-----1------|---3---0-----0-3-1-|
--------2-------2--5-|-----0-----0------0-|-----0-2---0-----0-|
------3-------3------|---0--------------5-|-------------------|
----3----------------|---3-----3----------|-----------------3-|
---------------------|--------------------|---------3---------|


                                                           
------0-------0----|-------------------|------0---------2-|
------------1------|------3----0-3-----|-------------1----|
----0-0---0------0-|----0----0------0--|----0-0----0------|
-----------------0-|------4---------10-|----------------0-|
--------3--------3-|----------------10-|---------3------3-|
-------------------|-------------------|------------------|


                                                               
--------2------------|-----------------|-------2---------2----|
----3---------3------|-------3---------|---0-4---0---0-4----0-|
------2-2---2---2----|-----0------0----|--------------------4-|
----------0--------3-|-------4---------|--------------------3-|
-------------------1-|---------------2-|-----------2----------|
---------------------|----------3------|--------------------3-|


                                                                               
-------3-----0----|--------0-------0--|------------------|---------2-------2--|
----0--0---0----1-|------1-------1----|---------3-----0--|-------3-------3----|
----------------0-|----0-------0------|---0--0------0-2--|---2-2-------2------|
---------2--------|-------------------|---3-----4--------|---0-------0--------|
----------------3-|----------3--------|---0--------------|--------------------|
------------------|-------------------|-----------3------|--------------------|


                                                                               
---------2----------|-----------------|---------2-------2--|--------3-0-------|
-------3-------3----|---------3-------|-----0-4-----0-4----|---0--0--------0--|
-----2-------2---2--|---2--0--0----0--|--------------------|---0--------------|
---0-------0--------|---0-----0-------|--------------------|---3---------2----|
--------------------|-----------------|---2-------2--------|---2--------------|
--------------------|------------3----|--------------------|------------------|


                                                                              
---0----0-------0--|------------------|-------------------|------------------|
---1----------1----|-------3-----0-3--|---7----7-------7--|--------7------7--|
------0-0---0------|-----0-----0------|--------------7----|------8------8----|
-------------------|---0---4----------|---3--7-7-0-7------|-----------9------|
---3------3--------|---5--------------|---7---------------|---9--------------|
---1---------------|---------3--------|-------------------|---7--------------|


                                                                       
--------------------1-|------------|----------3-|---------3------3----|
---------4-4-----1----|------------|------------|-------4------4----1-|
-------5---0---1----1-|------------|----------3-|---3-3------3------5-|
-----6----------------|------------|------------|---1---------------3-|
-----------2----------|---4--------|------------|---------------------|
---4---------4--------|------------|------------|---------------------|


                                                            
---1---5------------|------1-------1----|--------------2-1-|
-----1-6-----6------|------2-----2----2-|------2-----2-----|
-----------5---5--5-|----3-----3------3-|----3-6---3-------|
---------3----------|-----------------2-|----------------2-|
------------------4-|--------1----------|------------------|
--------------------|-------------------|--------2-------2-|


                                                                                
-------1-------1----|---------4---------|-----------------|-------4------------|
-----2-------2------|-----1-4-----------|-------6---------|-------------1-4----|
---1-------1------1-|---1-------3-5---6-|-------------6-0-|-----5-----1------3-|
------------------1-|---------------6-6-|----6--6---6---4-|---6--------------6-|
---------4--------4-|-----------------4-|---------4-------|------------------6-|
--------------------|-----------4-------|---------------4-|---------4----------|


                                                                   
-------3-------3----|------------------------|------1-------1-----|
-----4-------4------|-------10---------10----|------------2-------|
---3-------3-----0--|---------------10-----1-|----3-1---3------3--|
---------1-------10-|----10-10---10--------4-|-----------------7--|
-----------------11-|----------8-----------6-|--------1--------11-|
-----------------13-|----------------------6-|--------------------|


                                                                
----------------2-----|-------------------|--------------------|
-----2--2-----2-------|------6-------6----|-----1-4-----1-4--2-|
---3----3---3------1--|------6-----6------|---1-------1------1-|
--------7----------6--|----6-----6------1-|------------------6-|
-------------------11-|--------4--------4-|--------------------|
----------2-----------|-------------------|---------4--------0-|


                                                            
------------------|-------------------|-------3-------3--1-|
-------2-----2----|-------1--4------3-|-----4-------4----1-|
----1--1---1----3-|-----1--------1----|---3-------3--------|
-------6--------1-|---1--------1----4-|---------1----------|
---------4--------|-----------------6-|------------------3-|
----------------4-|-------------------|--------------------|


                                                           
---1---5------------|------1-------1---|------------2---1-|
-----1-------6----2-|------2-----2-----|----------2-------|
-------5---5---5--1-|----3-----3-----1-|-------3----------|
---------3----------|----------------4-|-----4--------4-2-|
------------------1-|--------1-------7-|---4------------4-|
------------------4-|----------------2-|----------------2-|


                                                                                
-------1-------------|---------4---------|------1------1----|------4-----------|
-----2----------2----|-------4---4-----2-|------2----2------|--------------4---|
---1----------1----5-|-----5-------5---1-|----1----1------0-|------------5-----|
------------1------4-|---6-----------6-6-|----------------6-|----6-----6-------|
---------4--4--------|-------------------|----------------9-|--------6-------6-|
-------------------4-|-------------------|------------------|------------------|


                                                               
-------3-------3-----|------5------------|--------1------1----|
-----4-------4----5--|------------6------|------2------2------|
---3-------3---------|----5-5---5---5----|---3-------3------6-|
---------1--------3--|--------3----------|------------------3-|
------------------6--|-------------------|------------------7-|
------------------11-|-----------------6-|--------------------|


                                                                                
----------2-----1-|------------------|----------------------|------------------|
----------------2-|------2---1-2-----|--------4-------4-----|------6------6--0-|
-------3--1---3---|----1-----1---1-3-|-----5--------5----1--|-----------6------|
-----4------4-----|----------------6-|---6----5---6------6--|----6-6--6------6-|
---4------------2-|--------4---------|-------------------11-|------------------|
------------------|----------------4-|----------4-----------|----------------6-|


                                                             
------4------------|---3----3-------3--|-----1---1-----1----|
------------1-4----|---4----------4----|---1---1-----1---1--|
----------1--------|------3-3---3------|---5----------------|
----6------------3-|----------1--------|---3-------3--------|
-----------------6-|-------------------|--------------------|
--------4----------|-------------------|--------------------|


                                                             
---1----1-------1--|-------------2------|--------1-------1--|
--------2-----2----|---2-------2--------|---1----------2----|
------3-----3------|---2-----3-------3--|------1-1---1------|
---2---------------|---3---4-------4----|---2---------------|
---1------1--------|-----4--------------|---4------4--------|
---4---------------|--------------------|---2---------------|


                                                                                
-------------------|---------------1--|--------4----------|---------3-------3--|
--------1-4-4------|--------2----2----|---0----------1-4--|-----4---------4----|
---1--1---8---5----|---1--1-5--1------|------1-----1------|---3---3-3---3------|
---4------------6--|---2--------------|---1---------------|---3-------1--------|
---6---------------|---6--------------|---1---------------|---6----------------|
-------------------|---4--------------|---4------4--------|--------------------|


                                                              
---0----------------|---1------1--------|--------------------|
-----6---6-----6----|--------2-------2--|---2--------2-------|
-------5-----5---5--|------3-------3----|---2-----3--6---3---|
---3-------3--------|---2---------------|-------4------4-----|
---6----------------|------------1------|-----4--------------|
--------------------|-------------------|---2----------------|


                                                        
---1-----1-------1----|-----------4--------|----------||
-------2-2-----2------|-------1-4---4------|----------||
-----1-------1------1-|---0-1---------5----|----------||
---2------------------|---4-------------6--|----------||
---4-------4----------|--------------------|----------||
---2------------------|---4----------------|----------||

Fuente original ATAME [www.atame.org]
Colaborador original: jesus morales [jesusml_fca@hotmail.com]

Fuente: tusacordes.com