a b c d e f g h i j k l m n o p q r s t u v w x y z 0-9

Dame

Ricardo Arjona

			
Muy bien ....una aclaración muy importante 
todo se toca con capo trasto en la segunda cuerda.

esta es la introducción de la canción 
se repite unas 3 beses este fragmento..  
 


E-----------------------------------
A----------------3----------------3-
D--0-------------------0------------
G---2---------------0---2-----------
B-----3-------------2----3----------
e--------0-2-3------2-------0-2-3---


y después se le agrega este otro fragmento 
junto con el anterior


E-------------------------------------
A--3----------3-----------------------
D-------------------------------------
G----0---0-------0---0------------2---
B------3-----------3------------0-----
e--------------------------2--0----2--

que dará como resultado solo en la parte 
donde es tranquila y tipo arpegiado.


E-----------------------------------
A----------------3----------------3-
D--0-------------------0------------
G---2---------------0---2-----------
B-----3-------------2----3----------
e--------0-2-3------2-------0-2-3---

E-----------------------------------
A----------------3----------------3-
D--0-------------------0------------
G---2---------------0---2-----------
B-----3-------------2----3----------
e--------0-2-3------2-------0-2-3---
E-----------------------------------

A----------------3----------------3-
D--0-------------------0------------
G---2---------------0---2-----------
B-----3-------------2----3----------
e--------0-2-3------2-------0-2-3---


E-----------------------------------
A----------------3----------------3-
D--0-------------------0------------
G---2---------------0---2-----------
B-----3-------------2----3----------
e--------0-2-3------2-------0-2-3---

E-------------------------------------
A--3----------3-----------------------
D-------------------------------------
G----0---0-------0---0------------2---
B------3-----------3------------0-----
e--------------------------2--0----2--

E-----------------------------------
A----------------3----------------3-
D--0-------------------0------------
G---2---------------0---2-----------
B-----3-------------2----3----------
e--------0-2-3------2-------0-2-3---

E-------------------------------------
A--3----------3-----------------------
D-------------------------------------
G----0---0-------0---0------------2---
B------3-----------3------------0-----
e--------------------------2--0----2--

espero y la mejoren por que le falta mucho ...
...esto solo es la introducción le hace falta la letra 
pero esta  bien. 

una saudo a mi novia que IRAIS

Fuente original ATAME [www.atame.org]
Colaborador original: jose elñias moreno gozalez [Ovi_one75@hotmail.com]

Fuente: tusacordes.com