a b c d e f g h i j k l m n o p q r s t u v w x y z 0-9

Como Duele

Ricardo Arjona

			
RIFF 1

        Csus2               Am711          F69                    G*
e|-3----3--3---3---|-3---3--3--3---|-3---3--3---3----|-3---3---3---3---|
B|-3----3--3---3---|-3---3--3--3---|-3---3--3---3----|-3---3---3---3---|
G|-0--0---0--0---0-|-0--0--0--0--0-|-0--0---0---0--0-|-0--0---0---0--0-|
D|-----------------|---------------|-----------------|-----------------|
A|-3---------------|-0-------------|-----------------|-----------------|
E|-----------------|---------------|-1---------------|-3---------------|


RIFF 2

        Cadd9            Am711         F69       G*
e|-----------3----|-----------3----|------------3---|
B|-3---3--3--3----|-3---3--3--3----|-3---3---3--3---|
G|-0---0--0-----0-|-0---0--0-----0-|-0---0---0------|
D|-2--2--2--2-----|-2--2--2--2-----|-0--0--0---0--0-|
A|-3--------------|-0--------------|----------------|
E|----------------|----------------|-1-------3------|

RIFF 3
       Cadd9            Am7       F     FM7b5      Dm7     Bb
e|---------------|---------------|----------------|----1-----0--|
B|-3---3--3--3---|-1---1--1--1---|-1---1--1---1---|---1------3--|
G|-0---3--3--3---|-0---0--0--0---|-2---2--2---2---|--2-------3--|
D|-2--2--2--2--2-|-2--2--2--2--2-|-3--3---2--2--2-|-0-----------|
A|-3-------------|-0-------------|----------------|----------1--|
E|---------------|---------------|-1------1-------|-------------|



RIFF1
Intro: (Csus2-Am711-F69-G)

      Csus2
Te conseguí la luz del sol a medianoche
Am711
Y el número después del infinito,
F69
E instalé la Osa Mayor en tu diadema
G*
Y tú seguías ahí como si nada;

Csus2
Endulcé el agua del mar para tu sed,
Am711
Te alquilé un cuarto menguante de la luna,
F69
Y como buen perdedor busqué en la cama
G*
Las cosas que el amor no resolvía.

ESTRIBILLO
RIFF2
       Csus2               Am711
Y cómo duele que estés tan lejos
            F69               G*
Durmiendo aquí en la misma cama;


Acordes Arpegiando

Cadd9           Am7
Cómo duele tanta distancia,
             F       FM7b5
Aunque te escucho respirar
           Dm7            Bb
Y estás a cientos de kilómetros


Acodes Rasgados balada/pop
CORO:
   C              Am
Y duele quererte tanto,
            F            G
Fingir que todo está perfecto
          C               Am
Mientras duele gastar la vida
    F           FM7b5
Tratando de localizar
             Dm7         G
Lo que hace tiempo se perdió...


Csus2
Acabé con los jardines por tus flores,
     Am711
Inventé la alquimia contra la utopía,
         F
Y he llegado a confundir con la ternura
    G
La lástima con que a veces me miras;

      Csus2
Que triste es asumir el sufrimiento,
  Am711
Patético es creer que una mentira
    F
Convoque a los duendes del milagro,
       G
Que te hagan despertar enamorada.

CORO:
       Cadd9               Am7
Y cómo duele que estés tan lejos
              F             G
Durmiendo aquí en la misma cama […]
    F           FM7b5
Tratando de localizar
             Dm7         Bb
Lo que hace tiempo se perdió

            Am             E7
Por qué nos duele tanta distancia,
            F           Dm
Fingir que todo está perfecto
           Bb             C
Mientras sientes que te duele
           Am                F              G
Gastar la vida durmiendo aquí en la misma cama...

       Csus2
Cómo duele...

(Csus2-Am711-F69-G)


ACORDES:

C:     032010
Csus2: 032033
Cadd9: 032030
Dm:    X00231
Dm7:   x00211
E7:    030100
F:     133211
F69:     130033
FM7b5:   122211
G:     320003
G*:    320033
Am:    003310
Am7:   002010
Am711:   002033
Bb:    113331Fuente: Tus acordes