a b c d e f g h i j k l m n o p q r s t u v w x y z 0-9

Como Duele

Ricardo Arjona

C
Am
F
G
E
			
Intro:
     C                 Am                   F                G
e-------------0-------------------0------------------3?1?0-------
b----1-1----1----3---1--1--1----1----3---1--1--1-1-1---------3---
g---------0-------------------2----------------------------------
D----------------------------------------------------------------
A----3------------------0----------------------------------------
E-------------------------------------------1----------------3---


         C
Te conseguí la luz del sol a medianoche
     Am
y el numero después del infinito
        F
e instale la osa mayor en tu diadema
   G                     G7
y tu seguías ahí como si nada
      C
Endulcé el agua de mar para tu sed
        Am
te alquilé el cuarto menguante de la luna
     F
y como buen perdedor busqué en la cama
     G                        G7
las cosas que el amor no resolvía


[Coro]

        C                  Am
Y como duele que estés tan lejos
            F               G
durmiendo aquí en la misma cama
      C             Am
como duele tanta distancia
             F         E
aunque te escucho respirar
           F            G
y estás a cientos de kilómetros
   C             Am
Y duele quererte tanto
            F            G
fingir que todo esta perfecto
          C              Am
mientras duele gastar la vida
          F        E               F            G
tratando de localizar lo que hace tiempo se perdió.


    C
Acabé con los jardines por tus flores
     Am
inventé la alquimia contra la utopía
         F
y he llegado a confundir con la ternura
    G                         G7
la lástima con que a veces me miras
     C
Que triste es asumir el sufrimiento
   Am
patético es creer que una mentira
    F
convoque a los duendes del milagro
       G                    G7
que te hagan despertar enamorada


[Coro]

        C                  Am
Y como duele que estés tan lejos
            F               G
durmiendo aquí en la misma cama
      C             Am
como duele tanta distancia
             F          E
aunque te escucho respirar
           F            G
y estás a cientos de kilómetros
   C             Am
Y duele quererte tanto
            F            G
fingir que todo esta perfecto
          C              Am
mientras duele gastar la vida
          F       E                F            G
tratando de localizar lo que hace tiempo se perdió

             Am
por que nos duele
          E
tanta distancia
            C            F
fingir que todo esta perfecto
          G
mientras sientes
        C              Am
que te duele gastar la vida
            F               G
durmiendo aquí en la misma cama
      C
Como duele?

[En el ultimo C comienza el arpegio de Salida]


Salida:
     C                 Am                      C
e-------------0-------------------0--0-------------0---
b----1-1----1----3---1--1--1----1-------3--1------1----
g---------0-------------------2------------------0-----
D-----------------------------------------------2------
A----3------------------0----------------------3-------
E------------------------------------------------------


:················. NO OVIDEN CALIFICAR ESTA CANCIÓN .················:

Fuente: Tusacordes