a b c d e f g h i j k m n o p q r s t x v w y z 0-9

Talisman

Rata Blanca

			
Este es mi primer aporte, se que puede estar lleno de errores pero ahí voy. Un gran tema del último disco de rata, el reino olvidado.

Vamos que se puede!

INTRO:
e |-----------------------------------------------------|
B |--2h4h5-4-2-------------------------/4-2-0-----------|
G |-------------2v----2p1-----------------------1v------|
D |-------------------------4-2-1v----------------------|
A |-----------------------------------------------------|
E |-----------------------------------------------------|

e |--------------------------------------------------------|
B |-----------------------------------------7-5s7--5-4v----|
G |--/1----------------2h4h6-4-2---------------------------|
D |-------4-2-1--------------------4v**--------------------|
A |---------------4v---------------------------------------|
E |--------------------------------------------------------|

e |----------------------------------------------------------|
B |--7s9--7--5-7-5---4-4-5-7---------------------------------|
G |-----------------------------4v---------------------------|
D |----------------------------------------------------------|
A |----------------------------------------------------------|
E |----------------------------------------------------------|

Acá arranca la segunda guitarra repitiendo desde el comienzo hasta el asterisco. La primera guitarra sigue así:

e |--2h4p2p0----------------------2-0-------------------------|
B |---------------2v---2-0-----------------D-0--0-------------|
G |--------------------------2-1--------------------2-1-------|
D |-------------------------------4v---------------------4-2v-|
A |-----------------------------------------------------------|
E |-----------------------------------------------------------|

e |-----------------------------------------------------------|
B |--2h4h5-4-2-------------------7-5s7--5--3-5-3--------------|
G |----------------2h4p2-1h2v---------------------------------|
D |-----------------------------------------------------------|
A |-----------------------------------------------------------|
E |-----------------------------------------------------------|

e |-----------------------------------------------------------|
B |--1h2 1----1h2-1-------------------------------------------|
G |---------2---------2-1-------------------------------------|
D |-------------------------4-2-1-----------------------------|
A |---------------------------------4-3-4v--------------------|
E |-----------------------------------------------------------|

C#5		  A5
Fui como un angel caído,
B5	         F#5
preso de mi libertad,
A5	          B5
hasta que te conoci
	 C#5
por esas calles.

C#5		     A5
Fue porque quiso el destino,
B5	             F#5
que te pudiera encontrar,
         A5	    B5
y hoy no se como seguir
	    C#5
cuando no estas.  A |---/4---6---9---11--|
                  E |--------------------|

ESTRIBILLO:

    Te agradezco que sanes mi alma
G |---------------------------------------------9p8------------|
D |---------------------------------------------------- 9-6----|
A |------------------------------------------------------------|
E |---0-------------0--2--4--5--7----------------------------0-|

    Sobrevivo encontrando en tus ojos
E |---0---------0--2--4--A-----5------2---|

    el resplandor de un verde talisman...
E |---4--------------------9---11-12--9-----|

    Si al final esta vida es un sueño,
G |---------------------------------------------9p8------------|
D |-----------------------------------------------------9-6----|
A |------------------------------------------------------------|
E |---0-------------0--2--4--5--7----------------------------0-|

    solo se que a tu lado me quiero despertar
E |----------------0-----0--2--4--5-----4------2---|

    amanecer... una vez mas...
E |---4-----------9---11---12---|

INTRO

C#5		       A5
Sabes cuando era muy joven,
B5	                F#5
nunca pense que el amor
      A5	    B5
me daría sin preguntar
	    C#5
tantas respuestas.

C#5		   A5
Y hoy que me fío de pocos,
B5	                 F#5
y hoy que reina la traición,
           A5	      B5
se que alguien puede curar
        C#5
mi corazon.

ESTRIBILLO

SOLO DE GUITARRA:

e|----------------------------------------------------|
B|----------------------------------------------------|
G|-11s13v-13b-13b-13b-13b-13b----------------89---- |
D|----------------------------14-11---9-9-11-----11---|
A|----------------------------------------------------|
E|----------------------------------------------------|
   
E|-12-9------------------------------------------------------|
B|-----12-9------------9-----9-----9---------9v-8h9p8v-------|
G|---------11-9---9-11b---11b---11b---11v--------------9b-9b-|
D|--------------11-------------------------------------------|
A|-----------------------------------------------------------|
E|-----------------------------------------------------------|
    
e|--------14-16b-16b-14---14-16-----------|
B|--/14-17-------------17------17-14-14---|
G|----------------------------------------|
D|----------------------------------------|
A|----------------------------------------|
E|----------------------------------------|
     
e|-12-9--------9-----9-----9------------------------|
B|-----12-9-12b---12b---12b---12b---10-9------------|
G|--------------------------------------11-9--------|
D|------------------------------------------11-9v---|
A|--------------------------------------------------|
E|--------------------------------------------------|
   
e|------------------------------------------------------|
B|------------------------------------------------------|
G|-11p9---11p9---11p9---11p9---11b---8h9p8--------------|
D|-----11-----11-----11-----11------------11-9----------|
A|--------------------------------------------12-11-----|
E|-------------------------------------------------12-9-|
 
e|---------------------------------------------|
B|---------------------------------------------|
G|-1314-11h13p11-9-9---8h9p8-6---------------|
D|------------------------------9-7-6----------|
A|-----------------------------------7-6-------|
E|--------------------------------------7-4v---|

e|---------------------------------|
B|---------------------------------|
G|---------------------------------|
D|-10-11-13------------------------|
A|----------9-11-12---3-4-6-7-9v---|
E|---------------------------------|

ESTRIBILLO

FINAL Ohh, Ohh, Ohh:

e|----------------------------------------|
B|----------------------------------------|
G|-11s13-11--------------9s11-9-8---------|
D|---------14-11-----------------9-7------|
A|--------------14-12v--------------11v---|
E|----------------------------------------|

e|-----------------------------------------|
B|-----------------------------------------|
G|-----------------------------------------|
D|-13s14-13-11-----------------------------|
A|------------12-11-9v---9s112-11---9-11---|
E|-----------------------------------------| X2

ÚLTIMO PUNTEO

e|-------12-14-17---15s14-12s11---|
B|-/12-12-------------------------|
G|--------------------------------|
D|--------------------------------|
A|--------------------------------|
E|--------------------------------|

e|-------12-14-15---15s14-12s11---|
B|-/12-12-------------------------|
G|--------------------------------|
D|--------------------------------|
A|--------------------------------|
E|--------------------------------|

e|-------11-12-14v---12v---11v----------|
B|-/12-12----------------------13-14v---|
G|--------------------------------------|
D|--------------------------------------|
A|--------------------------------------|
E|--------------------------------------| X2

Bueno el tema en sí no es muy dificil. Espero que les sirva. Cualquier cosa comenten así lo corrijo. Saludos y aguante rata!!<p>Fuente: tusacordes.com</p>