a b c d e f g h i j k l m n o p q r s t u v w x y z 0-9

El Sueño De La Gitana

Rata Blanca

			
LEYENDA DE LAS NOTAS:

W = REDONDA     NOTA COMPLETA
H = BLANCA      MEDIA NOTA
Q = NEGRA       CUARTO DE NOTA
E = CORCHEA     OCTAVO DE NOTA
S = SEMICORCHEA DIECISEISAVA DE NOTA
T = FUSA        TREINTAIDOSAVA DE NOTA
X = SEMIFUSA    SESENTAICUATROAVA DE NOTA

a  =  ACCIACCATURA
+  =  LIGADURA
.  =  AUMENTA LA DURACION DE LA NOTA
.. =  AUMENTA LA DOBLE DE LA DURACION DE LA NOTA

LEYENDA DE LOS SIMBOLOS:

 h   - HAMMER-ON
 p   - PULL-OFF
 b   - BEND
 pb  - PRE-BEND
 r   - BEND RELASESI NO HAY UN NUMERO DESPUES DEL LA r, ENTONCES EL RELASE ES INMEDIATO
 /  - SLIDE
 s   - LEGATO SLIDE
 S   - SHIFT SLIDE
  - HARMONICOS NATURALES
[n]  - HARMONICOS ARTIFICIALES
nn - HARMONICO ATRAVEZ DE UN TAP
 ~   - VIBRACION
 tr  - TRINO
 T   - TAP
 TP  - TREM. PICKING
 PM  - PALM MUTING

/  - tremolo bar dip; n = amount to dip
 
  - TREMOLO BAR DOWN
 n/  - TREMOLO BAR UP
/n  - TREMOLO BAR INVERTED DIP
 =   - SONTENIENDO UN BEND; TAMBIEN ACTUA COMO UN CONECTOR PARA HAMMERS Y PULLS
 <>  - NIVEL DEL VOLUMEN
 x   - NOTA APAGADA
 o   - REPRESENTA UNA NOTA CORTADA


LEYENDA DEL PENTAGRAMA
 |  - COMPAS
||  - DOBLE COMPAS
||o - ES DONDE VA A COMENZAR CUANDO ALGO SE VA A REPETIR
o|| - ES DONDE VA A TERMINAR CUANDO ALGO SE VA A REPETIR
*|  - FIN DE LA CANCION
 :  - COMPAS LIBRE
 $  - SEGNO AL VER ESTE SIGNO, TENEMOS QUE RETROCEDER HASTA VER EL SIGNO ANTERIOR $...
 &  - CODA SIGNIFICA QUE DEBES PASAR LA SIGUIENTE SIGNO &


**AQUI EMPIEZA LA ROLA**

La Afinacion del Bajo es Normal E A D G 

  Q=140
 4/4
  Gtr I
  W          W          W          W
|----------|----------|----------|------|
|----------|----------|----------|------|
|----------|----------|----------|------|
|----------|----------|----------|------|


  W          W          W          W
|----------|----------|----------|------|
|----------|----------|----------|------|
|----------|----------|----------|------|
|----------|----------|----------|------|


  W          W          W          E. S E E E. S E E
|----------|----------|----------|----2-2------4-4---|
|----------|----------|----------|--------1-2--------|
|----------|----------|----------|-5-----------------|
|----------|----------|----------|-----------------4-|


  E. S S S E E. S S S E   E. S S S E E. S E E
|-----------------------|---------------------|
|-----------------------|----7-7--------9-9---|
|----7-7--------7-7---4-|-5--------6-7--------|
|-5--------0-5----------|-------------------4-|


  E. S S S E E. S E E   E. S E E E. S E E
|---------------------|-------------------|
|---------------------|----7-7------9-9---|
|----7-7--------7-7-4-|-5------6-7--------|
|-5--------0-5--------|-----------------4-|


  E. S S S E E. S E E   E. S E E E. S E E
|---------------------|-------------------|
|---------------------|----7-7------9-9---|
|----7-7--------7-7-4-|-5------6-7--------|
|-5--------0-5--------|-----------------4-|


  S S S S E E H      E. S S S E E. S E E
|------------------|---------------------|
|------------------|----7-7--------9-9---|
|------------------|-5--------6-7--------|
|-5---5---5--------|-------------------4-|


  E. S S S E E. S E E   E. S S S E E. S E E
|---------------------|---------------------|
|---------------------|----7-7--------9-9---|
|----7-7--------7-7-4-|-5--------6-7--------|
|-5--------0-5--------|-------------------4-|


  E. S S S E E. S E E   E. S S S E E. S E E
|---------------------|---------------------|
|---------------------|----7-7--------9-9---|
|----7-7--------7-7-4-|-5--------6-7--------|
|-5--------0-5--------|-------------------4-|


  E. S S S E E. S E E   E. S E E E. S E E   E. S S S E E. S E E   E E Q  H
|---------------------|-------------------|---------------------|-------------|
|---------------------|----7-7------9-9---|---------------------|-------------|
|----7-7--------7-7-4-|-5------6-7--------|----7-7--------7-7---|-------------|
|-5--------0-5--------|-----------------4-|-5--------0-5------0-|-5-----------|


  E. S E E Q  Q    E. S S S E E. S E E   E. S E E Q  Q    E. S S S E E. S E E
|----------------|---------------------|----------------|---------------------|
|----7-7---------|---------------------|----7-7---------|---------------------|
|-5-----------5--|----7-7--------7-7-4-|-5-----------5--|----7-7--------7-7-4-|
|--------2-3-----|-5--------0-5--------|--------2-3-----|-5--------0-5--------|


  E. S E E Q  Q    E. S S S E E. S E E   E. S E E Q  Q    S S E E E E E E E
|----------------|---------------------|----------------|-------------------|
|----7-7---------|---------------------|----7-7---------|-------------------|
|-5-----------5--|----7-7--------7-7-4-|-5-----------5--|-------------------|
|--------2-3-----|-5--------0-5--------|--------2-3-----|-5---5---5---5---5-|


  E. S E E Q  Q    E. S S S E E. S E E   E. S E E Q  Q    S S E E E E E E S S
|----------------|---------------------|----------------|----------------------|
|----7-7---------|---------------------|----7-7---------|----------------------|
|-5-----------5--|----7-7--------7-7-4-|-5-----------5--|----------------------|
|--------2-3-----|-5--------0-5--------|--------2-3-----|-5---5---5---5---5----|


  E. S E E Q  Q    E. S S S E E. S E E
|----------------|---------------------|
|----7-7---------|---------------------|
|-5-----------5--|----7-7--------7-7-4-|
|--------2-3-----|-5--------0-5--------|


  E. S E E Q  Q    E. S S E S E. S S S E
|----------------|------------------------|
|----7-7---------|------------------------|
|-5-----------5--|----7-7--------7-7------|
|--------2-3-----|-5------0---5--------0--|


  E E Q  H      S E S +S  S E +E  E +S  S E   S E S +S  S E +E  S S E E
|-------------|-----------------------------|---------------------------|
|-------------|-------------9-9---------9-|-------------7-7-------7-|
|-------------|-7---7-7---------7-7-----|-7---7-7---------7---7---|
|-5-----------|-----------------------------|---------------------------|


  S E S +S  S E +E. S E S S   Q  Q  Q  Q    S E S +S  S E +E  S S E E
|---------------------------|-------------|---------------------------|
|-------------9-9-----9---|-7--6--------|-------------9-9-------9-|
|-7---7-7---------7-7-----|-------9--7--|-7---7-7---------7---7---|
|---------------------------|-------------|---------------------------|


  E S S +S  S E +E  E E E   E S S +S  S E +E. S E S S   Q  Q  H
|-------------------------|---------------------------|------------|
|-------------7-7-----7-|-------------9-9-----9---|-7-----7----|
|-7---7-7-----------7---|-7---7-7---------7-7-----|----7-------|
|-------------------5-----|---------------------------|------------|


  E. S E S S E. S E E   E. S E S S E. S E E
|---------------------|---------------------|
|----7-7--------------|---------------------|
|-5------5------5-5---|----7-7--------7-7---|
|------------3------3-|-5------5---5------5-|


  E S S E E E. S E E   E. S E S S E. S E E
|--------------------|---------------------|
|-----7-7------------|---------------------|
|-5-------5----5-5---|----7-7--------7-7---|
|-----------3------3-|-5------5---5------5-|


  E. S E E E. S E E   E. S E S S E. S E E
|-------------------|---------------------|
|----7-7------------|---------------------|
|-5------5----5-5---|----7-7--------7-7---|
|----------3------3-|-5------5---5------5-|


  E. S E E E. S E S S   S S S S S S E H
|---------------------|--------------------|
|----7-7--------------|--------------------|
|-5------5----5-5-----|--------------------|
|----------3------3---|-5---5---5----------|


  E. S S S E E. S E E   E. S S S E E. S E E
|---------------------|---------------------|
|----7-7--------9-9---|-----------------2---|
|-5--------6-7--------|----7-7--------7---4-|
|-------------------4-|-5--------0-5--------|


  E. S S S E E. S E E   E. S S S E E. S E E
|---------------------|---------------------|
|----7-7--------9-9---|---------------------|
|-5--------6-7--------|----7-7--------7-7-4-|
|-------------------4-|-5--------0-5--------|


  E. S S S E E. S E E   E. S S S E E. S E E
|---------------------|---------------------|
|----7-7--------9-9---|---------------------|
|-5--------6-7--------|----7-7--------7-7-4-|
|-------------------4-|-5--------0-5--------|


  E. S E E E. S E E   E. S S S E E. S E S S
|-------------------|-----------------------|
|----7-7------9-9---|-----------------------|
|-5------6-7--------|----7-7--------7-7-----|
|-----------------4-|-5--------0-5------0---|


  E. S E E E. S E E   E. S S S E E. S S S E
|-------------------|-----------------------|
|----7-7------9-9---|-----------------------|
|-5------6-7--------|----7-7--------7-7---4-|
|-----------------4-|-5--------0-5----------|


  E. S S S E E. S E E   E. S S S E E. S E E
|---------------------|---------------------|
|----7-7--------9-9---|---------------------|
|-5--------6-7--------|----7-7--------7-7---|
|-------------------4-|-5--------0-5------9-|


  E. S E E E. S E E   E. S S S E E. S E E   E. S E E E. S E E   Q  Q  H
|-------------------|---------------------|-------------------|------------|
|----7-7------9-9---|-----------------2---|----7-7------9-9---|-7-----7----|
|-5------6-7--------|----7-7--------7---4-|-5------6-7--------|----7-------|
|-----------------4-|-5--------0-5--------|-----------------4-|------------|


  E. S E S S E. S E E   E. S E S S E. S E E
|---------------------|---------------------|
|----7-7--------------|---------------------|
|-5------5------5-5---|----7-7--------7-7---|
|------------3------3-|-5------5---5------5-|


  E S S E E E. S E E   E. S E S S E. S E E
|--------------------|---------------------|
|-----7-7------------|---------------------|
|-5-------5----5-5---|----7-7--------7-7---|
|-----------3------3-|-5------5---5------5-|


  E. S E E E. S E E   E. S E S S E. S E E
|-------------------|---------------------|
|----7-7------------|---------------------|
|-5------5----5-5---|----7-7--------7-7---|
|----------3------3-|-5------5---5------5-|


  E. S E E E. S E S S   S S S S S S E H
|---------------------|--------------------|
|----7-7--------------|--------------------|
|-5------5----5-5-----|--------------------|
|----------3------3---|-5---5---5----------|


  W          W          W          W
|----------|----------|----------|------|
|----------|----------|----------|------|
|----------|----------|----------|------|
|----------|----------|----------|------|


  W          W          W          S S E E E E E E E
|----------|----------|----------|--------------------|
|----------|----------|----------|--------------------|
|----------|----------|----------|--------------------|
|----------|----------|----------|-5---5---5---5---5--|


  E. S E E E. S E E   E. S S S E E. S S S E
|-------------------|-----------------------|
|----7-7------9-9---|-----------------------|
|-5------6-7--------|----7-7--------7-7---4-|
|-----------------4-|-5--------0-5----------|


  E. S S S E E. S E E   E. S S S E E. S E E
|---------------------|---------------------|
|----7-7--------9-9---|---------------------|
|-5--------6-7--------|----7-7--------7-7-4-|
|-------------------4-|-5--------0-5--------|


  E. S S S E E. S E E   E. S S S E E. S E E
|---------------------|---------------------|
|----7-7--------9-9---|---------------------|
|-5--------6-7--------|----7-7--------7-7-4-|
|-------------------4-|-5--------0-5--------|


  E. S E E E. S E E   E. S S S E E. S E S S
|-------------------|-----------------------|
|----7-7------9-9---|-----------------------|
|-5------6-7--------|----7-7--------7-7-----|
|-----------------4-|-5--------0-5------0---|


  E. S E E E. S E E   E. S S S E E. S E E
|-------------------|---------------------|
|----7-7------9-9---|-----------------2---|
|-5------6-7--------|----7-7--------7---4-|
|-----------------4-|-5--------0-5--------|


  E. S E E E. S E E   S S S S E E H
|-------------------|------------------*|
|----7-7------9-9---|------------------*|
|-5------6-7--------|------------------*|
|-----------------4-|-5---5---5--------*|

Fuente original ATAME [www.atame.org]
Colaborador original: Joel [sargento41@hotmail.com]

Fuente: tusacordes.com