a b c d e f g h i j k l m n o p q r s t u v w x y z 0-9

El Niño Del Tambor

Raphael

D
A
			
Para los acordes solo se tokan 4 cuerdas al mismo tiempo, y depende de los acordes: en D D se tokan la 1,2,3,4   y en A A son las 2,3,4,5 ...

Aquí suena mejor de quedito a volumen normal   y al contrario al final osea de fuerte a quedito 

cada k sale el acorde se toca una ves como indique

D,DDD,DDD,DDD,DD

E|----0-2-2-2--2-3-2-3-2----------------------
B|--3---------------------------------------
G|------------------------------------------
D|------------------------------------------
A|------------------------------------------
E|------------------------------------------

DDD,DDD

E|------0-2-2-2--2-3-2-3-2-------------------
B|--3-3-------------------------------------
G|------------------------------------------
D|------------------------------------------
A|------------------------------------------
E|------------------------------------------

E|--0-2-3-5-5-5--7-5-3-2-0------------------
B|------------------------------------------
G|------------------------------------------
D|------------------------------------------
A|------------------------------------------
E|------------------------------------------

AAA,AAA

E|--0-2-3-5-5-5-7-8-7-5-3----7-5-3-2-----5-3-2-0-
B|------------------------------------------
G|------------------------------------------
D|------------------------------------------
A|------------------------------------------
E|------------------------------------------

DDD,DDD

E|----0-2-2-2--2-3-2-3-2----------------------
B|--3---------------------------------------
G|------------------------------------------
D|------------------------------------------
A|------------------------------------------
E|------------------------------------------

DDD,DDA

E|--0---0-----------------------------------
B|----3---3---------------------------------
G|------------------------------------------
D|------------------------------------------
A|------------------------------------------
E|------------------------------------------

E|--7575--3232----3-2-0---------------------
B|------------------------------------------
G|------------------------------------------
D|------------------------------------------
A|------------------------------------------
E|------------------------------------------

DDD,DDD,DDD,DDD

Y Todo se repite otra vez?

Ai una forma que suena mejor para los tambores es... las dos ultimas kuerdas se kruzan y en medio se pone el dedo indice de forma que quede apachurrado entre las dos cuerdas el dedo eso... entre los trastes 6 y 8

Fuente: Tusacordes