a b c d e f g h i j k m n o p q r s t x v w y z 0-9

Ohne Dich

Rammstein

			
Title:	Ohne Dich
Artist:	Rammstein
Album: Reise, Reise
Tab: Kristoffer Salamonsen

Drop D tuning

Intro (0:00 - 0:57) Synth And Vokal

0:57 Acoustic guitar

e|-----|
B|-----|
G|--7--|
D|--7--|
A|--5--|
D|-----|

1:04
e|-----|
B|-----|
G|-----|
D|--5--|
A|--5--|
D|--5--|


e|------------|
B|------------|
G|------------|
D|--3-----10--|
A|--3---------|
D|--3-/10-----|

Repeat two times

1:25
Verse 1a
e|-------------------------------------------------------------------|
B|-------------------------------------------------------------------|
G|-------------------------------------------------------------------|
D|------0-------0-------9-------7-------5-------5-------3-------7----|
A|----0---0---0---0---7---7---7---7---5---5---5---5---3---3---7---7--|
D|--0-------0-------7-------7-------5-------5-------3-------7--------|

e|---------------------------------------------------------|
B|---------------------------------------------------------|
G|---------------------------------------------------------|
D|------0-------0-------9-------7-------5-------5----------|
A|----0---0---0---0---7---7---7---7---5---5---5---5--------|
D|--0-------0-------7-------7-------5-------5-------3-7--|

Verse 2 distortion
e|----------------|
B|----------------|
G|----------------|
D|--0--7--5--3-7--|x4
A|--0--7--5--3-7--|
D|--0--7--5--3-7--|


Verse 1b
e|-------------------------------------------------------------------|
B|-------------------------------------------------------------------|
G|-------------------------------------------------------------------|
D|------0-------0-------9-------7-------5-------5-------3-------7----|
A|----0---0---0---0---7---7---7---7---5---5---5---5---3---3---7---7--|
D|--0-------0-------7-------7-------5-------5-------3-------7--------|

e|----------------------------------------------------|
B|----------------------------------------------------|
G|----------------------------------------------------|
D|------0-------0-------9-------7-------5-------------|
A|----0---0---0---0---7---7---7---7---5---5-----------|
D|--0-------0-------7-------7-------5-------5--3-7--|

| Verse x4


e|-----|
B|-----|
G|-----|
D|--0--|
A|--0--|
D|--0--|<p>Fuente: Tusacordes</p>