a b c d e f g h i j k l m n o p q r s t u v w x y z 0-9

Love Of My Life

Queen

			
Bueno, henos aquí, esta vez con algo un poco mas suave pero que no por eso es peor, para esta canción necesitaran paciencia, esfuerzo, apreciación por canciones lentas y una guitarra acústica XD. Comencemos:Antes que nada quiero aclarar que esta es una versión que puede usase tanto como para tocar y cantar como para solo tocar ya que permite reemplazar, y debido a que la saque a partir de la original que es interpretada en piano TAL VEZ se les haga complicado cantarla, solo búsquenle el lado y le van a dar, se los aseguro 

INTRO:

Usaremos los acordes D, Bm, Em, E, A, A7, G6 y D9/G#

   D              Bm             Em               A
e--------2--------------2--------0---3--------------------------|
B--3-2-3-------3--3-2-3---3------0-------3---2----2---3---5--2--|
G--2---------2----4---------4----0-----0---0---0--2---0---0--0--|
D--0-------0------4-----------4----2--------------2---4---5--2--|
A-----------------2-------------------------------0-0---0-------|
E--------------------------------0------------------------------|

   D              Bm             G6      D9/G#    E
e--------2--------------2--------7-------5--------0--------------|
B--3-2-3-------3--3-2-3---3------5---5---5---5----0---0---0---0--|
G--2---------2----4---------4----7-7---7-7-7---7--1---2---4---7--|
D--0-------0------4--------------5-------4------------4---6---9--|
A-----------------2-----------0----------------------------------|
E-------------------------------------------------0-0---0---0----|

ESTROFAS:

Aquí usaremos los mismos y otros nuevos que mejor hacen cuando los vean:
 
   A             F#m       Bm         E
e--------0-------------2---------2----0--------------|
B--------------2---------2-3-2-3---3--0---0---0---0--|
G--2-1-2-----2-------------4----------1---2---4---7--|
D--2-------2---------4-----4--------------4---6---9--|
A--0---------------4-------2-------------------------|
E----------------2--------------------0-0---0---0----|

   A         A7 D       Bm F#m G      D      G  D  Bm Em A7
e---------0-----------2-------------3-2---------2-------------------|
B--2-0----0--2------3----3--2-------3-3-2----3--3--3--0--------2----|
G--2---2--2--0----2------4--2-----0---2---4--0--2--4--0------0---0--|
D--2------5--2--0--------4--4---0-----0------0--0--4--2----2--------|
A--0---------0-----------2-------------------------2-----0----------|
E---------------------------2-3--------------3--------0-------------|
 
   D                      G6      D9/G#    E                D
e------2---7---5---3---2--7-------5--------0----------------------2----|
B------3---8---7---5---3--5---5---5---5----0--------------------3---3--|
G----2-----------------2--7-7---7-7-7---7--1---2---4---7------2--------|
D--0-----0---0---0---0-0--5-------4------------4---6-----9--0----------|
A----------------------------------------------------------------------|
E------------------------------------------0-0---0---0-----------------|

   Bm         F#m       G          D            F# Bm         F#m 
e----------2--------------------3--2---3---5----2----------2-----------|
B--------3----------2---------3----3---5---7----2--------3----------2--|
G------4-4----------2-2-----0-0----2------------3------4-4----------2--|
D----4------------4-------0--------0-0---0---0--4----4------------4----|
A--2------------4-------------------------------4--2------------4------|
E-------------2---------3-----------------------2-------------2--------|

   D#º      Em        A   
e--2--2--2----------0-----------------|
B--1--1--1--------0---2---3---5---10--|
G--2--2--2--------0---2---0---0---0---|
D--1--1--1------2-----2---4---5---11--|
A-------------2-------0-0---0---0-----|
E-----------0-------------------------| 

e--------5---5-----------------------------|
B------7-------7---------------------------|
G----7-----6-----6-------------------------|   4x
D--0---------------------------------------|
A------------------------------------------|
E------------------------------------------|

FINAL:
  
   Bm      F#m     Em       Gm
E|--------------------------6---5--2-------|
B|-------3-------2-----0----3---3--3-------|
G|-----4---------2-----0----3-3----2-------|
D|---4---------4-----2---2--5------0-------|
A|-2---------4-----------------------------|
E|---------2-------0-----------------------|

Eso es todo, para los que la quieren tocar con acordes:

 A                       F#m
Love of my life  you've hurt me
         Bm                 E
You've broken my heart and now you leave me
 A          G69 A7        D
Love of my life  can't you see
          Bm             F#m
Bring it back, bring it back
       G        D              G
Don't take it away from me, because
 D   Bm     Em    A7              D
you don't know, what it means to me

 G6  D9/F#  E 

 A                     F#m
Love of my life don't leave me
         Bm                 E
You've stolen my love, and now desert me
 A          G69 A7        D
Love of my life  can't you see
  Bm      F#m
Bring it back, bring it back
       G        D              G     D
Don't take it away from me, because you

 Bm     Em    A7              D
don't know, what it means to me

 Bm                       F#m
You will remember  When this is blown over
    G                        D   F#
And everything's all by the way
  Bm              F#m
When I grow older I will be there

         D#º
at your side to remind you
    Em               A
how I still love you I still love you

Punteo

 Bm
Love of my life
 F#m              Em  Gm D
Love of my life, humm

                              FIN

Ahora si ha sido todo, ojala les haya gustado, gracias por leer, comenten, punteen y no insulten, gracias y hasta la próxima.

Canción anterior: Nirvana / Smells Like Teen Spirit

Próxima canción: Red Hot Chili Peppers / Californication

Nos vemos....

Fuente: Tusacordes