a b c d e f g h i j k l m n o p q r s t u v w x y z 0-9

Ya No Hay Forma De Pedir Perdon

Pedro Aznar

Gm
Cm
F
Bb
Fm
			
 Intro:

e|--10--10--10--10--10--10----6--5--3--------|
B|---8---8---8---8---8---8-------------3/4---|
G|--10--10---9---9---8---8-------------------|
D|-------------------------------------------|
A|-------------------------------------------|
E|-------------------------------------------|
                            D7
e|--7--8---------------2/3--5--5/6--5?-------|
B|--------8---------3------------------------|
G|-----------8--7----------------------------|
D|-------------------------------------------|
A|-------------------------------------------|
E|-------------------------------------------|

Gm                           Cm
Cómo voy a lograr que aún me quieras?
F                         Bb
Cómo lograr que quieras escuchar?
Gm                     Cm
Cuando este fuego me desvela
F                           Bb
Pero despierto solo una vez más

Gm                  Cm
Cómo lograr verte de nuevo?
F                        Bb
Cómo he de recobrar tu corazón?
Gm                       Cm
Cómo aceptar que todo ha muerto?
  F                           Bb
Y ya no hay forma de pedir perdón

Cm      Re7
Qué mal, qué mal,
Gm                          Cm
Esta absurda y triste historia
            Fm        Bb
Que se pone cada vez peor
Cm      Re7
Qué mal, qué mal,
Gm
Por qué ni puedo hablarte?
Cm           Re7
Temo que es así,
Cm                 Re7          Gm
Que ya no hay forma de pedir perdón

Gm - Cm - F - Bb [x2]

Cm      Re7
Qué mal, qué mal,
Gm                         Cm
Esta absurda y triste historia
            Fm        Bb
Que se pone cada vez peor
Cm      Re7
Qué mal, qué mal,
Gm
Por qué ni puedo hablarte?
Cm           Re7
Temo que es así,
Cm                 Re7          Gm
Que ya no hay forma de pedir perdón

Gm - Cm - F - Bb [x2]

Gm                           Cm
Cómo voy a lograr que aún me quieras?
F                         Bb
Cómo lograr que quieras escuchar?
Gm                     Cm
Cuando este fuego me desvela
Cm                    Re7
Qué es lo que voy a hacer?
Gm                   Cm
Qué es lo que voy a hacer?
Cm                Re7              Gm ? Cm - Gm
Si ya no hay forma de... pedir perdón?       Oooh oooh

Al final queda bien hacer esto:

e|-----2/3--5--5/6--5?-3--2?2/3--------------|
B|--3----------------------------------------|
G|-------------------------------------------|
D|-------------------------------------------|
A|-------------------------------------------|
E|-------------------------------------------|

Espero que les sirva, el tema es hermoso, tóquenlo bien y también les va a salir bueno.
Cualquier cosa que quieran me escriben, nos vemos. 

Fuente original ATAME [www.atame.org]
Colaborador original: Luciano Cinel [lcinel_lqqchs@hotmail.com]

Fuente: tusacordes.com