a b c d e f g h i j k l m n o p q r s t u v w x y z 0-9

Yo No Me Cai Del Cielo

Patricio Rey Y Sus Redonditos De Ricota

			
aca les paso el solo que en la cancion lo repite 2 veces, esta muy bien sacado asi que no jodan
Galla

e-------10--9--10--9-----------------------------------------------------------------------------------
b--12-------------------10--12--12-----------------------------------------------10-------10-------
g---------------------------------------11--9--7--9--7--6---------7--9?9?11-------11-------11--
D-------------------------------------------------------------7--9--------------------------------------
A--------------------------------------------------------------------------------------------------------
E--------------------------------------------------------------------------------------------------------


e-------10--12--10--12--10-------------10------------10------------10------------10--------------
b--12----------------------------10--12-------10--12-------10--12-------10--12----------7-------
g--------------------------------------------------------------------------------------------------------
D--------------------------------------------------------------------------------------------------------
A--------------------------------------------------------------------------------------------------------
E--------------------------------------------------------------------------------------------------------


e--------------------------------9--10--9---------------------------------------------------------------
b--8--7--------------------10--------------10---------------------7--8--10--------------------------
g---------9--7?7?9---9-----------------------9--------6--7--9--------------------------------------
D---------------------------------------------------7--9------------------------------------------------
A--------------------------------------------------------------------------------------------------------
E--------------------------------------------------------------------------------------------------------


e---------------------------------2----------------------------------------------------------------------
b-------------------7--8--10---3-----------------------------------------------------------------------
g---------6--7--9---------------2----------------------------------------------------------------------
D-7--9--------------------------------------------------------------------------------------------------
A--------------------------------------------------------------------------------------------------------
E--------------------------------------------------------------------------------------------------------

Fuente original ATAME [www.atame.org]
Colaborador original: Galla [rama_gualicho@hotmail.com]

Fuente: tusacordes.com