a b c d e f g h i j k l m n o p q r s t u v w x y z 0-9

Yo No Me Cai Del Cielo

Patricio Rey Y Sus Redonditos De Ricota

			
Intro:
GUITARRA:   LA
E|----------------------|-------2------|--|----------------------|--------------2-|
B|----------------------|-------3------|--|----------------------|--------------3-|
G|-------------2----2-|-------2--2-|X3|-------------2----2-|--2--2--2--2--2-|
D|-2---2-2-2---2--x-2-|-2-2-2----2-|--|-2---2-2-2---2--x-2-|--2--2--2--2--0-|
A|-0---0-0-0---0--x-----|-0-0-0----0-|--|-0---0-0-0---0--x-----|--0--0--0--0------|
E|----------------------|--------------|--|----------------------|------------------|
PM..   .....              .....                ......
BAJO:
G|----------------------------------------------------------------------------------|
D|----------------------------------------------------------------------------------|
A|-----------------------------------------------------------------------------3-5--|
E|----------------------------------------------------------------------------------|

despues...

RIFF 1
GUITARRA:

E|-3-2------3-2--------|--------------------|-3-2------3-2--------|-------------------|
B|-----3--------3------|-----2-3-5--3-5-3~|-----3--------3------|-----2-3-5--3-5----|
G|-------2--------4~-|-4-4----------------|-------2--------4~-|-4-4---------------|
D|---------------------|--------------------|---------------------|-------------------|
A|---------------------|--------------------|---------------------|-------------------|
E|---------------------|--------------------|---------------------|-------------------|

BAJO:  RE                 SOL                 LA
G|---------------------|-------------------|---------------------|
D|---------------------|-------------------|---------------------|X2
A|-5-5-5-5-5-5-5-5-5-5-|-------------------|---------------------|
E|---------------------|-3-3-3-3-3-3-3-3-3-|-5-5-5-5-5-5-5-5-5---|


y sigue asi...   RIFF 2

GUITARRA :
e|------4--------------|--|------4--------------|  |-----------||
B|----3----3-5---5-----|--|----3----3-5---5-----|  |-----------||
G|--4----------6---2-4-|X3|--4----------6---2-4-|  |---REPITE--||
D|---------------------|--|---------------------|  |----RIFF-1-||
A|---------------------|--|---------------------|  |-----------||
E|---------------------|--|---------------------|  |-----------||

BAJO:
G|----------------------------------------------------|   |-------|-------|-------|
D|------4------------------4----------------4---------|   |--RE---|--SOL--|--LA---|X2
A|----5----5-7-----------5---5-7----------5---5-7-----|   |-------|-------|-------|
E|--7-----------5-5--5-7---------5-5--5-7---------5-5-|   |-------|-------|-------|


VERSO 1:

GUITARRA :                                         ____________________X2______________________
e|------4--------------|--|------4--------------|  |-3-2-----3-2-------------------------------||
B|----3----3-5---5-----|--|----3----3-5---5-----|  |-----3-------3-----------------------------||
G|--4----------6---2-4-|X3|--4----------6---2-4-|  |-------2------4----------------------------||
D|---------------------|--|---------------------|  |-----------------7-----------------------||
A|---------------------|--|---------------------|  |-----------------7-7-7---------------7-7-||
E|---------------------|--|---------------------|  |-----------------5-5-5-3h5-5-5-3h5-5-5-5-||

BAJO:                                                      _________________X2_________________
G|----------------------------------------------------|   |-------|-----------------------------|
D|------4------------------4----------------4---------|   |-------|-----------------------------|
A|----5----5-7-----------5---5-7----------5---5-7-----|   |5555555|-----------------------------|
E|--7-----------5-5--5-7---------5-5--5-7---------5-5-|   |-------|---5--5-5-3h5-5-5-3h5-5-5-5--|


Nena no quiero perderte
no pases de todo 
que no esta tan mal

Yo no me cai del cielo            
Pero si de un bar muy triste


ESTRIBILLO 1:

RE
Nena,     
nena hay mucho olor a gato
nena no quiero perderte
                        *
si quieres puedes apostar.

RE
Nena,
hay alegrias y alegrias
hay mucho vino malicioso 
                  *
y poco vino del mejor.


GUITARRA :       RE                                *
E|------------------------------------------------------------------------|
B|------------------------------------------------------------------------|
G|-7--------------------------------------------------------------------|X2
D|-7--77777777--7--77777777---7--77777777---7---------------------|
A|-5--55555555--5--55555555---5--55555555---7---------------------|
E|------------------------------------------------5---------------------|

BAJO:
G|------------------------------------------------------------------------|
D|------------------------------------------------------------------------|
A|-5--55555555--5--55555555---5--55555555---------------------------|X2
E|------------------------------------------------5---3h5-5-5-3h5---5-5-|


SOLO DE GUITARRA:

BAJO:  Si       SOL             SI  SI sol        LA                             RE
G|-----------|-----------|--|------|------|------------------------------------|----------------|
D|-----------|-----------|X4|------|------|------------------------------------|----------------|
A|-2-2-2-2-2-|-----------|--|-2--|-2----|------------------------------------|-5-5-5-5-5-5-5-5|
E|-----------|-3-3-3-3-3-|--|------|----3-|-5-5-5-5-5-5-5-5--5---5-5-5-5-5-5-|----------------|


guitarra solo:
E|------10-9-|-10-9-------|-----------|-------------------|--------------------10|-10-12-13p12-
B|10/12------|------10-12-|-12--------|-------------------|------------10-12b----|-------------
G|-----------|------------|-----11~-|-9-7-9--7-6--------|------9-11br------------|-------------
D|-----------|------------|-----------|------------7-9~-|-9-12-------------------|-------------
A|-----------|------------|-----------|-------------------|------------------------|-------------
E|-----------|------------|-----------|-------------------|------------------------|-------------

E|--12-10-|------10-|-------10|-------10|-------10|-----------|---------------|-9----10----10----
B|--------|-10-12---|-10-12---|-10-12---|-10-12---|-12--------|------------10-|--10----10----10
G|--------|---------|---------|---------|---------|----9-11~|-12p11--9----9-|----9-----9-------
D|--------|---------|---------|---------|---------|-----------|----------12---|------------------
A|--------|---------|---------|---------|---------|-----------|---------------|------------------
E|--------|---------|---------|---------|---------|-----------|---------------|------------------

-----------------|-----------------|------------|
-----------7-8-10|-----------7-8-10|------------|
-----6-7-9-------|-----6-7-9-------|---Re-------|
-7-9-------------|-7-9-------------|------------|
-----------------|-----------------|------------|
-----------------|-----------------|------------|


PUENTE RIFF 1 ]X1

GUitarra:
E|-3-2------3-2--------|--------------------|-3-2------3-2--------|-------------------|
B|-----3--------3------|-----2-3-5--3-5-3~|-----3--------3------|-----2-3-5--3-5----|
G|-------2--------4~-|-4-4----------------|-------2--------4~-|-4-4---------------|
D|---------------------|--------------------|---------------------|-------------------|
A|---------------------|--------------------|---------------------|-------------------|
E|---------------------|--------------------|---------------------|-------------------|

BAJO:  RE                 SOL                 LA
G|---------------------|-------------------|---------------------|
D|---------------------|-------------------|---------------------|X2
A|-5-5-5-5-5-5-5-5-5-5-|-------------------|---------------------|
E|---------------------|-3-3-3-3-3-3-3-3-3-|-5-5-5-5-5-5-5-5-5---|


VERSO 2 igual.

Nena no quiero perderte
no pases de todo 
que no esta tan mal

Yo no me cai del cielo            
Pero si de un bar muy triste


ESTRIBILLO 2: igual

RE
Nena,     
nena hay mucho olor a gato
nena no quiero perderte
                        *
si quieres puedes apostar.

RE
Nena,
hay alegrias y alegrias
hay mucho vino malicioso 
                  *
y poco vino del mejor.


REPITE EL SOLO DE GUITARRA: igual

y FINAL
   RE
E|-------------------------------||
B|-------------------------------||
G|-7-7-7-7-7-7-7-7-7-7-7-7-7-7-7-||
D|-7-7-7-7-7-7-7-7-7-7-7-7-7-7-7-||
A|-5-5-5-5-5-5-5-5-5-5-5-5-5-5-5-||
E|-------------------------------||

BAJO:
G|-------------------------------||
D|-------------------------------||
A|-5-5-5-5-5-5-5-5-5-5-5-5-5-5-5-||
E|-------------------------------||

fin.

Fuente original ATAME [www.atame.org]
Colaborador original: Guille [elguille665@hotmail.com]

Fuente: tusacordes.com