a b c d e f g h i j k l m n o p q r s t u v w x y z 0-9

Yo Canibal

Patricio Rey Y Sus Redonditos De Ricota

			
Aqui tienen la tablatura de la cancion completa gente.
Creo que esta excelente la trascripcion, pero si hay
algun error haganmelo saber a: pupi_elocho@hotmail.com


Intro
       D5           D6 D5  A#
 e  e----------------------6-6-6--------------
 s  B----------------------6-6-6--------------
 t  G----------------------7-7-7--------------
 o  D--7---7-7-7-7-7-8-7----------------------]estas cuerdas van sordinadas
    A--5---5-5-5-5-5-5-5----------------------]con la palma de la mano der.
 X4 E-----------------------------------------


  Am             A#              Am            A#
e--5----5--------6----------------5---5---5----6-6-6-6---6-6-6-6-
B--5------5------6----------------5-5---5---5--6-6-6-6---6-6-6-6-
G--5--------5----7----------------5------------7-7-7-7---7-7-7-7-
D--7-------------8----8----8-8----7------------8-8-8-8---8-8-8-8-
A--7-------------8----8----8-8----7------------8-8-8-8---8-8-8-8-
E--5-------------6----5/6--6-6----5------------6-6-6-6---6-6-6-6-


Las estrofas se tocan con la base de la intro.
escuchen la cancion y se van a dar cuenta.


No se entiende el menu pero la salsa abunda.
soy un gourmette que huele eternamente mal.
viejas compotas que on dan respiro
al canibal que hay en mi
que no es bien recibido en un banquete asi

Se amasan las fortunas, se cargan los bolsillos
de presa seca, de oro falso de vermouth.
Me acaban el cerebro a mordiscos
bebiendo el jugo de mi corazón,
y me cuentan cuentos al ir a dormir . . .  Oh

Estribillo:

F        C            A#
   Un cordero de mi estilo
F        C            A#
   Un canibal de mi estilo


Solo de saxo

Solo

e--------------------------------------------------------------------
B---------6---810-----------------8--6-8-6--810-8-6---5-6--5-----
G-----5-7---7--------7---------5-7-------------------------------5-5-
D-5-7----------------------5-7---------------------------------------
A--------------------------------------------------------------------
E--------------------------------------------------------------------

e-------------------------------------10------
B----------8--6-8-6--8-6--8108p6----------
G------5-7----------------------------7-------
D-5-7-----------------------------------------
A---------------------------------------------
E---------------------------------------------


Voy al Coliseo a prenderme fuego.
mi racha de novato nunca cambiara.
Por favor que el adios no se alargue,
me canse de tanto esperar . . .
Cuando el fuego crezca quiero estar alli . . .  Oh


F        C            A#
   Un cordero de mi estilo
F        C            A#
   Un canibal de mi estilo
F        C            A#
   Un cordero de mi estilo
F        C            A#
   Un canibal de mi estilo

La Cancion termina tocando una vez  D5  y dejando sonar.

810    --->  estirar del traste 8 al traste 10.
8108 --->  estirar del traste 8 al traste 10 y
bajar de nuevo al traste 8.
5/6      --->  resbalar del traste 5 al 6
8p6      --->  pull off  soltar el dedo del
traste 8 y dejar sonar el traste 6 desligar

Fuente original ATAME [www.atame.org]
Colaborador original: Guido [pupi_elocho@hotmail.com]

Fuente: tusacordes.com