a b c d e f g h i j k l m n o p q r s t u v w x y z 0-9

Yo Canibal

Patricio Rey Y Sus Redonditos De Ricota

			
YO CANIBAL                                    


Intro
    *                        
    D             D+        Bb
E|-------------------------------------|
B|-------------------------------------|
G|--2-----2---2---3---2-----11-11-11/s-|
D|--0-0-0-0-0-0-0-0-0-0-0---10-10-10/s-|
A|-------------------------------------|
E|-------------------------------------|

Entra la bateria
    D             D+        Bb
E|---------------------------------------|
B|---------------------------------------|
G|--2-----2---2---3---2----11-11-11-11/s-|
D|--0-0-0-0-0-0-0-0-0-0-0--10-10-10-10/s-|
A|---------------------------------------|
E|---------------------------------------|

Despues hace
       Am                    Bbm
E|------------------5----------------------------------------------------
B|--------------------5--------------------------5---5---5-6-5-3-6-5-3---
G|----------------------5--------------------------5---5-----------------
D|----7---------------------8--------------------------------------------
A|----7---------------------8--------------------------------------------
E|----5--5-5-5-5-5----------6--6-6-6-5-6-5-6-----------------------------


Mientras el Indio canta, se toca *.

Solo

E|--------------------5--------------------------------------------------|
B|--------------6--------------------------8--6-8-6--8/10-8-6--5-6-5----|
G|----------5-7---7-5-----------------5-7-----------------------------5~-|
D|------5-7-------------7-7~/sl---5-7------------------------------------|
A|-----------------------------------------------------------------------|
E|-----------------------------------------------------------------------|


E|-----------------------------------------------10~-----|
B|-----------8--6-8-6--8/108^6---8/108^6-------10~-----|
G|------5-7---------------------7-----------7------------|
D|--5-7--------------------------------------------------|
A|-------------------------------------------------------|
E|-------------------------------------------------------|


D                    D+ D Bb    D      D+ D Bb
No se entiende un menú pero la salsa abunda.
Soy un gourmet que huele eternamente mal.
Am
Viejas compotas que no dan respiro
A#
Al caníbal que hay en mí,
Am                                 A#
Que no es bien recibido en un banquete así.

Se amasan las fortunas, se cargan los bolsillos.
De presa seca, de oro falso, de vermouth.
Am
Me acaban el cerebro a mordiscos
A#
Bebiendo el jugo de mi corazón
Am                         A#         C
Y me cuentan cuentos al ir a dormir.  Ooh...

F      C5            Bb5
Un cordero de mi estilo.
F     C5             Bb5
Un caníbal de mi estilo.

Voy al coliseo a prenderme fuego.
Mi racha de novato nunca cambiará.
Por favor que el adiós no se alargue.
Me cansé de tanto esperar.
Cuando el fuego crezca quiero estar allí.

Un cordero de mi estilo.
Un caníbal de mi estilo.

Fin en D5.

Fuente original ATAME [www.atame.org]
Colaborador original: Matias Chami [chami@arnet.com.ar]

Fuente: tusacordes.com