a b c d e f g h i j k l m n o p q r s t u v w x y z 0-9

Yo Canibal

Patricio Rey Y Sus Redonditos De Ricota

			
Intro 		00:10
G|--------------------7-7-7-7-7-7-7-|
D|----------------------------------|
A|----------------------------------| 
E|----------------------------------|

G|----------------------------------|
D|----------------------------------|  x4
A|5-5-5-5-5-5-5-5--5-5s1-1----------|
E|----------------------------------|
					00:23
G|---------------------------------------------------|
D|---------------------------------------------------|
A|-0-0-0-0-0-0-0-0-0-0-0-0--1-1-1-1-1-1--0h1-0h1-0h1-|
E|---------------------------------------------------|

G|---------------------------------------------------|
D|---------------------------------------------------|
A|-0-0-0-0-0-0-0-0-0-0-0-0--1-1-1-1-1-1-1-1-1-1-1-1s5|
E|---------------------------------------------------|

no se bien del menu pero la salsa abunda..  00:36
G|----------------------------------|
D|----------------------------------|  x4
A|5-5-5-5-5-5-5-5--5-5s1-1----------|
E|----------------------------------|

Viejas comptas que no dan respiro....	00:47
G|---------------------------------------------------|
D|---------------------------------------------------|
A|-0-0-0-0-0-0-0-0-0-0-0-0--1-1-1-1-1-1--0h1-0h1-0h1-|
E|---------------------------------------------------|

G|---------------------------------------------------|
D|---------------------------------------------------|
A|-0-0-0-0-0-0-0-0-0-0-0-0--1-1-1-1-1-1-1-1-1-1-1-1s5|
E|---------------------------------------------------|

se amasan las fortunas se cargan los bolsillos..  01:00
G|----------------------------------|
D|----------------------------------|  x4
A|5-5-5-5-5-5-5-5--5-5s1-1----------|
E|----------------------------------|

Un cordero de mi....			01:23
G|--------------------------------------------------|
D|--------------------------------------------------|
A|------------3-3-3-3-3-3-0-1-1-1-1-1-1--0h1-0h1-0h1|  x2
E|-1-1-1-1--1---------------------------------------|

 SOLO de saxo				01:35
G|----------------------------------|
D|----------------------------------|  x4
A|5-5-5-5-5-5-5-5--5-5s1-1----------|
E|----------------------------------|

Solo de guitarra			01:46
G|---------------------------------------------------|
D|---------------------------------------------------|
A|-0-0-0-0-0-0-0-0-0-0-0-0--1-1-1-1-1-1--0h1-0h1-0h1-|
E|---------------------------------------------------|

G|---------------------------------------------------|
D|---------------------------------------------------|
A|-0-0-0-0-0-0-0-0-0-0-0-0--1-1-1-1-1-1-3-3-3-3-3-5--|
E|---------------------------------------------------|


Voy a coliseo...			01:59
G|----------------------------------|
D|----------------------------------|  x4
A|5-5-5-5-5-5-5-5--5-5s1-1----------|
E|----------------------------------|

por favor que el adios no se alargue....02:11
G|---------------------------------------------------|
D|---------------------------------------------------|
A|-0-0-0-0-0-0-0-0-0-0-0-0--1-1-1-1-1-1--0h1-0h1-0h1-|
E|---------------------------------------------------|

G|---------------------------------------------------|
D|---------------------------------------------------|
A|-0-0-0-0-0-0-0-0-0-0-0-0--1-1-1-1-1-1-3-3-3-3-3-5--|
E|---------------------------------------------------|

Un cordero de mi....			02:23
G|--------------------------------------------------|
D|--------------------------------------------------|
A|------------3-3-3-3-3-3-0-1-1-1-1-1-1--0h1-0h1-0h1|  x3
E|-1-1-1-1--1---------------------------------------|

G|--------------------------------------------------|
D|--------------------------------------------------|
A|------------3-3-3-3-3-3-0-1-1-1-1-1-1-1-1-1-1--5--|  
E|-1-1-1-1--1---------------------------------------|

Fuente original ATAME [www.atame.org]
Colaborador original: pablo bavarisco [pbavarisco@hotmail.com]

Fuente: tusacordes.com