a b c d e f g h i j k l m n o p q r s t u v w x y z 0-9

Ya Nadie Va A Escuchar Tu Remera

Patricio Rey Y Sus Redonditos De Ricota

			
Intro:

GUITARRA 1 Y saxo:
  LA              Riff de saxo y guitarra
E|-5-5-5-5--|   |----------------------------------------10----||
B|-5-5-5-5--|   |----------------10----------------10-12-------||
G|-6-6-6-6--|   |*-11-9---11--11----12-11--9----12-------------||X4
D|-7-7-7-7--|   |*------12-------------------12----------------||
A|----------|   |----------------------------------------------||
E|----------|   |----------------------------------------------||

BAJO:    LA          RE         RE         SOL         LA
G|----------|   |-----------|----------|-----------|-----------||
D|----------|   |*----------|----------|-----------|-----------||X4
A|--

Fuente original ATAME [www.atame.org]
Colaborador original: Guille [elguille665@hotmail.com]

Fuente: tusacordes.com