a b c d e f g h i j k l m n o p q r s t u v w x y z 0-9

Vencedores Vencidos

Patricio Rey Y Sus Redonditos De Ricota

Dm
Gm
			
Esta es una version mejorada de la anterior

Intro: 
e|---------------|---------------|---------------|-------------|
B|---------------|---------------|---------------|-------------|
G|--------7-7----|--------5-5----|--------3-3----|-2-0---0-2---|
D|-----7-------7-|-----5-------5-|-----3-------3-|-----3-----3-|
A|-5-5-----------|-3-3-----------|-1-1-----------|-------------|
E|---------------|---------------|---------------|-------------|
 
e|---------------|---------------|---------------|-------------|
B|---------------|---------------|---------------|-------------|
G|--------7-7----|--------5-5----|--------3-3----|-------------|
D|-----7-------7-|-----5-------5-|-----3-------3-|-3-2-0-2--3v-|
A|-5-5-----------|-3-3-----------|-1-1-----------|-------------|
E|---------------|---------------|---------------|-------------|
 
Riff 1
e|--------------|------------|--------------|------------|
B|--------------|------------|--------------|------------|
G|--------------|------------|--------------|------------|
D|-0-2-3-2------|-0-2-3-2----|-0-2-3-2------|-0-2-3-2----|
A|----------3-0-|----------3-|----------3-0-|----------3-|
E|--------------|------------|--------------|------------|
 
Riff 2
e|--------------|------------|--------------|------------|
B|--------------|------------|--------------|------------|
G|-0-2-3-2------|-0-2-3-2----|-0-2-3-2------|-0-2-3-2----|
D|----------3-0-|----------3-|----------3-0-|----------3-|
A|--------------|------------|--------------|------------|
E|--------------|------------|--------------|------------|
 
Riff 1 Dm
Y ahora tiro por que me toca en este tiempo de plumaje blanco
Riff 2 Gm
Un mudo con tu voz y un ciego como yo ¡Vencedores vencidos!
 
Estribillo con Intro
Dm              C              A#              C
¡Te has fugado! ¡Me hago humo! ¡Den la alarma!
Dm              C                     A#                     C
Ensayo general para la alarma actual, teatro antidisturbios.
 
Riff 1 Dm
Se rompe loca mi anatomía con el humor de los sobrevivientes,
Riff 2 Gm
de un mudo con tu voz de un ciego como yo ¡Vencedores vencidos!



 
Puente
e|-5-|      |-3-|      |---------|    |-5-|      |-3-|      |-3v-|
B|-5-|      |-3-|      |---------|    |-5-|      |-3-|      |-3v-|
G|-6-| X 16 |-4-| X 10 |---------|    |-6-| X 16 |-4-| X 10 |-4v-|
D|-7-|      |-5-|      |---------|    |-7-|      |-5-|      |-5v-|
A|---|      |---|      |-4--5--6-|    |---|      |---|      |----|
E|---|      |---|      |---------|    |---|      |---|      |----|
 
Riff 1 Dm
Leyendo diarios en un baño turco empañando Ray Bans, mascando un hueso 
Riff 2 Gm
tu perro, un perro cruel con la costumbre de no contemplarse con los restos.
 
Estribillo con Intro
Dm       C          A#                C
¡Ovejero que descansa en manto negro!
Dm              C                     A#                     C
Ensayo general para la alarma actual, teatro antidisturbios.
 
Solo de Guitarra
e|-10v-|-10---10-8-10-|-8-5v-|-----------------|-------------------|
B|-10v-|-10---10-8-10-|-8-5v-|-----------------|-------------------|
G|-----|--------------|------|-12-12-14-15-12v-|-12--14-15-14--12v-|
D|-----|--------------|------|-----------------|-------------------|
A|-----|--------------|------|-----------------|-------------------|
E|-----|--------------|------|-----------------|-------------------|
 
e|-----------------|-------------------------|
B|-----------------|-------------------------|
G|-12-12-14-15-12v-|-12--14-15-14--12v-------|
D|-----------------|-------------------------|
A|-----------------|-------------------------|
E|-----------------|-------------------------|
 
e|-10v-|-10---10-8-10-|-8-5v-|-----------10-----13-|-----------10-----12v-|
B|-10v-|-10---10-8-10-|-8-5v-|-10-13--10-----10----|-10-13--10-----10-----|
G|-----|--------------|------|---------------------|----------------------|
D|-----|--------------|------|---------------------|----------------------|
A|-----|--------------|------|---------------------|----------------------|
E|-----|--------------|------|---------------------|----------------------|
 
Riff 1 Dm
En este rollo de monos de polvo hemos perdido el rastro unos minutos
Riff 2 Gm
un par de monos mas unos terrícolas ¡Vencedores vencidos!..
 
Estribillo con Intro
Dm               C                A#                C
¡Buena suerte! ¡Y mas que suerte! sin alarma....
Dm                 C                     A#                      C
Me voy corriendo a ver que escribe en mi pared, la tribu de mi calle.



 
Riff 1 Dm
Y ahora tiro por que me toca en este tiempo de plumaje blanco
Riff 2 Gm
Un mudo con tu voz y un ciego como yo ¡Vencedores vencidos!
 
Estribillo con Intro
Dm               C                A#                C
¡Buena suerte! ¡Y mas que suerte! sin alarma....
Dm                 C                     A#                      C
Me voy corriendo a ver que escribe en mi pared, la tribu de mi calle.
 
Solo de Saxo Intro x 2
 
Fin
e|-------------------|---|
B|-14-12----12-14----|---|
G|-------15-------15-|-7-|
D|-------------------|-7-|
A|-------------------|-5-|
E|-------------------|---|

Fuente original ATAME [www.atame.org]
Colaborador original: Pablo Szwedak [pablo_szwedak@ciudad.com.ar]

Fuente: tusacordes.com