a b c d e f g h i j k l m n o p q r s t u v w x y z 0-9

Vencedores Vencidos

Patricio Rey Y Sus Redonditos De Ricota

			
Riff 1:
las quintas estan tocadas en la 5ta cuerda
   Re5     Do5     La#5                   Re5     Do5     La#5
|--------------------------------------------------------------------------------|
|--------------------------------------------------------------------------------|
|----7-7-----5-5-----3-3---2-------2--------7-7-----5-5-----3-3------------------|
|--7-----7/5-----5/3-----3---5-3-5---3----7-----7/5-----5/3-----3-3-2-0-2-3-2-0--|
|--------------------------------------5-----------------------------------------|
|--------------------------------------------------------------------------------|


En la parte que canta va esto:
Riff 2:              Y la otra viola hace cada tanto asi:
|--------------|     |--10--|
|--------------|     |--10--|
|--------------|     |--10--|
|--0-2-3-2-----|     |--12--|
|---------3-0--|     |------|
|--------------|     |------|

Despues cambia y     
lo hace mas agudo:   Y la otra viola mas grave:
|--------------|     |--3--|
|--------------|     |--3--|
|--0-2-3-2-----|     |--3--|
|---------3-0--|     |--5--|
|--------------|     |-----|
|--------------|     |-----|

En una parte hace una especie de corte que se hace de esta forma:
|--5-----------3----------|--------|--5-----------3----------|
|--5-x varias--3-x menos--|--------|--5-x varias--3-x menos--|
|--6---veces---4-q antes--|--------|--6---veces---4-q antes--|
|--7-----------5----------|--------|--7-----------5----------|
|-------------------------|--4-5-6-|-------------------------|
|-------------------------|--------|-------------------------|
escuchen el tema para sacar esta parte.

Listo, nada mas resta fijarse en que parte va cada cosa 
y ya se saben este espectacular tema de los redondos.

Alugunas aclaraciones:
El estribillo es el mismo que la intro
Ya les voy a pasar el solo porque todavia no lo saque
Suena mejor con una distorsion tipo Overdrive

Suerte!!!

Fuente original ATAME [www.atame.org]
Colaborador original: Juampi Pairola [juampip@yahoo.com]

Fuente: tusacordes.com