a b c d e f g h i j k l m n o p q r s t u v w x y z 0-9

Vencedores Vencidos

Patricio Rey Y Sus Redonditos De Ricota

			
Intro
G|---------------------------------------|
D|---7---7---5---5---------7-5---5-7-----|
A|-55--55--33--33----8---8-----8-----8-5-|
E|-----------------66--66----------------|

 |--------------------------------------|
 |---7---7---5---5----------------------|
 |-55--55--33--33----8---8--8-7-5-7-8-5-|
 |-----------------66--66---------------|

Verso
G|-----------------------|x2 |-------|x4
D|---2-3-2-3-----2-3-2---|   |-------|
A|-5---------3-5-------3-|   |---3-5-|
E|-----------------------|   |-3-----|

Coro
G|-------------------------|x2
D|-------------------------|
A|-5x8-3x8-------3x8-|
E|-------------6x8-------|

Verso
G|-----------------------|x2 |-------|x4
D|---2-3-2-3-----2-3-2---|   |-------|
A|-5---------3-5-------3-|   |---3-5-|
E|-----------------------|   |-3-----|

Puente
G|-----------------------------------|
D|-----------------------------------|
A|---------------4-5-6---------------|
E|-5x16-3x15-------5x16-3x15-|

Verso
G|-----------------------|x2 |-------|x4
D|---2-3-2-3-----2-3-2---|   |-------|
A|-5---------3-5-------3-|   |---3-5-|
E|-----------------------|   |-3-----|

Coro
G|-------------------------|x2
D|-------------------------|
A|-5x8-3x8-------3x8-|
E|-------------6x8-------|

Puente 2
G|-----------------------|x2 |-------|x4
D|---2-3-2-3-----2-3-2---|   |-------|
A|-5---------3-5-------3-|   |---3-5-|
E|-----------------------|   |-3-----|

 |-----------------------|x2 |-------|x4
 |---2-3-2-3-----2-3-2---|   |-------|
 |-5---------3-5-------3-|   |---3-5-|
 |-----------------------|   |-3-----|

Verso
G|-----------------------|x2 |-------|x4
D|---2-3-2-3-----2-3-2---|   |-------|
A|-5---------3-5-------3-|   |---3-5-|
E|-----------------------|   |-3-----|

Coro
G|-------------------------|x2
D|-------------------------|
A|-5x8-3x8-------3x8-|
E|-------------6x8-------|

Verso
G|-----------------------|x2 |-------|x4
D|---2-3-2-3-----2-3-2---|   |-------|
A|-5---------3-5-------3-|   |---3-5-|
E|-----------------------|   |-3-----|

Coro
G|-------------------------|x2
D|-------------------------|
A|-5x8-3x8-------3x8-|
E|-------------6x8-------|

Final Solo de Saxo **2VECES**
G|---------------------------------------|
D|---7---7---5---5---------7-5---5-7-----|
A|-55--55--33--33----8---8-----8-----8-5-|
E|-----------------66--66----------------|

 |--------------------------------------|
 |---7---7---5---5----------------------|
 |-55--55--33--33----8---8--8-7-5-7-8-5-|
 |-----------------66--66---------------|

Escuchá la canción para saber el ritmo

Fuente original ATAME [www.atame.org]
Colaborador original: Sebastián Vidondo [rojoamargodelsiglo@yahoo.com.ar]

Fuente: tusacordes.com