a b c d e f g h i j k l m n o p q r s t u v w x y z 0-9

Vamos Las Bandas

Patricio Rey Y Sus Redonditos De Ricota

			
INTRO:
GUITARRA:            ___________RIFF 1___________       
    RE                SOl          DO               
e|------------------|----6-6--------------------|--||
B|------------------|----6-6-----------3--3-3-|--||
G|------------------|---------------5--3--3-3-|X3|| repite
D|-7-7-7-7--7-7-7-7-|--5------x-x---5-----------|--||
A|-5-5-5-5--5-5-5-5-|--5------x-x---3-----------|--||
E|------------------|--3------------------------|--||


BAJO (el bajo, en el riff 1 hace sol-do  pero de distintas formas)
    RE                SOL      DO        SOL         DO       SOL      DO        RE
G|----------------|---------|---------|----------|--------|--------|---------|------------------|
D|----------------|---------|-------3-|----------|--------|--------|-------3-|------------------|
A|5-5-5-5-5-5-5-5-|-------3-|-3-5-6---|--------3-|-3------|-------3|-3-5-6---|-5-5-5-5-5-5-5-5-5|
E|----------------|-3-5-6---|---------|--3-5-6---|--6-5-3-|-3-5-6--|---------|------------------|
   SOL          DO        SOL     DO           SOL       DO
G|---------|---------|----------|---------|----------|---------|
D|---------|-------3-|/-5----5--|---------|----------|-------3-|
A|-------3-|-3-5-6---|----------|-3-------|--------3-|-3-5-6---|
E|-3-5-6---|---------|----3-3--3|---0-3-0-|-3-5-6----|---------|


SAXO hace esto sobre el riff 1
e|-----------------6~------|
B|-------6-7-8---6~------|
G|-7-8-9---------------------|X3
D|---------------------------|
A|---------------------------|
E|---------------------------|


VERSO 1:

re                                  re Do#
Y cuanto vale dormir tan custodiado?
do                                   do do#
de expertos cinicos y botones dorados
re                                  re Do#
Y cuanto vale ser la banda nueva
Do
y andar trepando radares militares?


GUITARRA: RE        RE DO#  DO          DO DO#   RE         RE DO#  DO
e|----------------|-----|--------------|-----|-------------|-----|--------------|
B|----------------|-----|--------------|-----|-------------|-----|--------------|
G|--7----7----7---|-7-6-|-5---5----5---|-5-6-|-7---7----7--|-7-6-|-5---5---5--|
D|--7----7----7---|-7-6-|-5---5----5---|-5-6-|-7---7----7--|-7-6-|-5---5---5--|
A|--5----5----5---|-5-4-|-3---3----3---|-3-4-|-5---5----5--|-5-4-|-3---3---3--|
E|----------------|-----|--------------|-----|-------------|-----|--------------|

BAJO:
G|----------------|-----|--------------|-----|-------------|-----|--------|--------|
D|----------------|-----|--------------|-----|-------------|-----|--------|------3-|
A|--5----5----5---|-5-4-|-3---3----3---|-3-4-|-5---5----5--|-5-4-|-3---3--|3-5-6---|
E|----------------|-----|--------------|-----|-------------|-----|--------|--------|


ESTRIBILLO:

GUITARRA:   riff 1 x 3     
        
    SOl          DO               
e||----6-6--------------------|--||
B||----6-6-----------3--3-3-|--||
G||---------------5--3--3-3-|X3|| 
D||--5------x-x---5-----------|--||
A||--5------x-x---3-----------|--||
E||--3------------------------|--||


BAJO :
       SOL      DO        SOL         DO       SOL      DO        
G||---------|---------|----------|--------|--------|---------|
D||---------|-------3-|----------|--------|--------|-------3-|
A||-------3-|-3-5-6---|--------3-|-3------|-------3|-3-5-6---|
E||-3-5-6---|---------|--3-5-6---|--6-5-3-|-3-5-6--|---------|


RIFF 1
    Vamos las bandas
RIFF 1
    Rajen del cielo
RIFF 1
    Vamos las bandas


VERSO 2: Igual


 Y cuanto vale tu estomago crispado?
 y tus narices temblando por el miedo?
 Y cuanto vale todo lo registrado?
 si el sueño llega la imagen te condena


ESTRIBILLO 2: igual

RIFF
    Vamos las bandas
RIFF
    Rajen del cielo
RIFF
    vamos las bandas

GUITARRA:   riff 1 x 3 y RE     
        
    SOl          DO                   RE
e||----6-6--------------------|--||------------------|
B||----6-6-----------3--3-3-|--||------------------|
G||---------------5--3--3-3-|X3||------------------| 
D||--5------x-x---5-----------|--||-7-7-7-7--7-7-7-7-|
A||--5------x-x---3-----------|--||-5-5-5-5--5-5-5-5-|
E||--3------------------------|--||------------------|

BAJO :
       SOL      DO        SOL         DO       SOL      DO         RE
G||---------|---------|----------|--------|--------|---------|------------------|
D||---------|-------3-|----------|--------|--------|-------3-|------------------|
A||-------3-|-3-5-6---|--------3-|-3------|-------3|-3-5-6---|-5-5-5-5--5-5-5-5-|
E||-3-5-6---|---------|--3-5-6---|--6-5-3-|-3-5-6--|---------|------------------|


SOLO DE PIANO Y SAXO:

GUITARRA: [SOL-DO] X8

BAJO: piano
    SOL      DO         SOL         DO       SOL      DO        SOl      DO
G||---------|-------2-|----------|--------|--------|-------2-|---------|---------|
D||-------2-|---2-5---|-5-3-2----|--------|-------2|---2-5---|-5-3-2---|---------|
A||---2-5---|-3-------|-------5--|-3-1-0--|---2-5--|-3-------|-------5-|-3-------|
E||-3-------|---------|----------|-------3|-3------|---------|---------|---0-3-0-|

BAJO saxo
   SOL      DO         SOL         DO       SOL      DO        SOl      DO
G||---------|---2---2-|----------|--------|--------|-------2-|---------|---------|
D||---2---2-|-----5---|/5-----5--|--------|-------2|---2-5---|---------|-------3-|
A||-----5---|-3-------|----------|-3------|---2-5--|-3-------|-------3-|-3-5-6---|
E||-3-------|---------|---3-3---3|---0-3-0|-3------|---------|-3-5-6---|---------|


PUENTE Riff 1 X 3

VERSO 3 igual

Y cuanto valen todas tus enfermeras?
y tus temblores de moco supercaro?
Y cuanto valen satelites espias?
y voluntades que crees haber sitiado

ESTRIBILLO 3: igual

RIFF 1
    Vamos las bandas
RIFF 1
    Rajen del cielo
RIFF 1
    Vamos las bandas


VERSO 4:Igual

Y cuanto valen tus ojos maquillados?
y meditar con eter perfumado?
Y cuanto vale ser la banda nueva?
y andar trepando radares militares

ESTRIBILLO 4: igual

RIFF 1
    Vamos las bandas
RIFF 1
    Rajen del cielo
RIFF 1
    Vamos las bandas


SOLO de SAXO:
BAJO:
   SOL         DO         SOL         DO       SOL      DO        SOl      DO
G||---------|---------|----------|--------|--------|---------|---------|---------|
D||-5-3-2---|---------|----------|-------3|--------|---------|---------|-------3-|
A||-------5-|-3-1-0---|-------3--|-3-5-6--|-------5|-3-1-0---|-------3-|-3-5-6---|
E||---------|-------3-|-3-5-6----|--------|-3-1-0--|-------3-|-3-5-6---|---------|

GUITARRA (Sol-DO)X4


SOLO DE GUITARRA:

BAJO 
   SOL      DO         SOL         DO       SOL      DO        SOl      DO
G||---------|---2---2-|----------|--------|---------|---------|--------|-------2-|
D||---------|-----5---|---2---2--|--------|---------|-------3-|-------2|---2-5---|
A||-------3-|-3-------|-----5----|-3-1-0--|-------3-|-3-5-6---|---2-5--|-3-------|
E||-3-5-6---|---------|-3--------|-------3|-3-5-6---|---------|-3------|---------|

GUITARRA: solo

e|-3333-3333-3333-|-------------|--------------|------------------3-3-/-|----------13-----------|
B|-3333-3333-3333-|-------------|--------------|----------------3-3-----|----11-14b---15b-14~-|
G|----------------|-5-3-5-3-5~|-5-3---3------|-----------3-5b---------|/12--------------------|
D|----------------|-------------|-----5---5~-|-----3-4-5--------------|-----------------------|
A|----------------|-------------|--------------|-3-5--------------------|-----------------------|
E|----------------|-------------|--------------|------------------------|-----------------------|

e|-------------------------------|-3333-3333-3333--|----------3~~--|
B|-13h11----13--13-11----11------|-3333-3333-3333--|----------3~~--|
G|-------12-----------12----12-/-|-----------------|--5-3-5-3------|
D|-------------------------------|-----------------|---------------|
A|-------------------------------|-----------------|---------------|
E|-------------------------------|-----------------|---------------|

FINAL.

GUITARRA:   riff 1 x 3     
        
    SOl          DO                  RE                                    SOl
e||----6-6--------------------|--||-------------------|-----------------|--------------|
B||----6-6-----------3--3-3-|--||-------------------|-----------------|--------------|
G||---------------5--3--3-3-|X3||-7-7-7-7-7-7-7-7-7-|-----------------|--------------|
D||--5------x-x---5-----------|--||-7-7-7-7-7-7-7-7-7-|-7-8-9-10-11-12--|--------------|
A||--5------x-x---3-----------|--||-5-5-5-5-5-5-5-5-5-|-5-6-7-8--9--10--|-555555555555-|
E||--3------------------------|--||-------------------|-----------------|-333333333333-|


BAJO :
       SOL      DO        SOL         DO       SOL      DO         RE                       SOl
G||---------|---------|----------|--------|--------|---------|-------------|--------------|-----|
D||---------|-------3-|----------|--------|--------|-------3-|-------------|--------------|-----|
A||-------3-|-3-5-6---|--------3-|-3------|-------3|-3-5-6---|-5-5-5-5-5-5-|-5-6-7-8-9-10-|-----|
E||-3-5-6---|---------|--3-5-6---|--6-5-3-|-3-5-6--|---------|-------------|--------------|33333|

fin.

Fuente original ATAME [www.atame.org]
Colaborador original: Guille [elguille665@hotmail.com]

Fuente: tusacordes.com