a b c d e f g h i j k l m n o p q r s t u v w x y z 0-9

Una Piba Con La Remera De Greenpeace

Patricio Rey Y Sus Redonditos De Ricota

			
Intro:
GUITARRA:

    Sib     Si         RE         SOL 
e|-----------------------------------------0--|
B|----------------------------------------------|
G|-----------4-------------7------------12------|X4
D|--0------4-------------7------------12--------|
A|1---1-/-2------2-/---5------5-/--10-----------|
E|----------------------------------------------|

BAJO:
G|----------------------------------------------|
D|----------------------------------------------|
A|-------2----------5-----------------------|X4
E|--------------------------------3-3-------|


VERSO 1:
GUITARRA:
    Sib     Si         RE         SOL 
e|-----------------------------------------0--|
B|----------------------------------------------|
G|-----------4-------------7------------12------|X4
D|--0------4-------------7------------12--------|
A|1---1-/-2------2-/---5------5-/--10-----------|
E|----------------------------------------------|

BAJO:
G|----------------------------------------------|
D|----------------------------------------------|
A|-------2----------5-----------------------|X4
E|--------------------------------3-3-------|

Esta dormida o finge que duerme
llega una mosca y se posa en su boca
y sin embargo mi mundo termina en ella


Pos_VERSO 1:
                      ________________________________________
Guitarra 1:          |               Riff 1                   |             
E|------------------|------------|--------|------|-------|------|----------|--------------|
A|------------------|------------|--------|------|-------|------|----------|--------------|
G|------------------|------------|--------|------|-------|------|----#-----|---repite-----|
D|------4-5-7-------|-2----------|--------|------|-------|------|----------|----Riff-1----|
A|--5--------5--|---3-2-0--|--------|-3--|-------|5---|----------|--------------|
E|------------------|------------|-0----|------|-3---|------|----------|--------------|
                      ________________________________________
GUITARRA 2:          |               Riff 1                   |   
E|--2-3-3--222--|-------------|-------|------|-------|2---|3-3--222|--------------|
A|--3-3-3--333--|-------------|-------|------|-------|3---|3-3--333|--------------|
G|--2-2-2--222--|-----------2-|-------|----0-|-------|2---|2-2--222|---repite-----|
D|--0------000--|-2--------2-2|-----2-|--2--2|---0---|0---|-----000|----Riff------|
A|------------------|---3-2-0---|---2--2|-3----|-2--2--|------|----------|------1-------|
E|------------------|-------------|0----|------|3------|------|----------|--------------|
                      ________________________________________
BAJO:                |               Riff 1                   |               
G|------------------|------------|--------|------|-------|------|--------|------------|-------|
D|------------------|------------|--------|------|-------|------|--------|-RIFF-1-----|-------|
A|--5--12/----5-|-------0--|--------|-3--|-------|5---|----5-|-de-bajo----|---5-|
E|------------------|------------|-0----|------|-3---|------|-3------|------------|-3-----|


"Ya se canso de dormir tanto tiempo en sillones
y de taparse la boca para no gritar"


VERSO 2: igual

GUITARRA:
    Sib     Si         RE         SOL 
e|-----------------------------------------0--|
B|----------------------------------------------|
G|-----------4-------------7------------12------|X4
D|--0------4-------------7------------12--------|
A|1---1-/-2------2-/---5------5-/--10-----------|
E|----------------------------------------------|

BAJO:
G|----------------------------------------------|
D|----------------------------------------------|
A|-------2----------5-----------------------|X4
E|--------------------------------3-3-------|


"Nunca supo buscarse la vida
su cuna fueron restos de un Mehari
Cuando se enoja chisporrotea infumable."


ESTRIBILLO 1:
Guitarra 1: 
    Si5      RE5    SOL 5   Sib5        Si5    RE5    SOL 5   FA#5        MI5           LA5
E|--------|------|-------|------|--|--------|------|-------|---------|------------|-------------|
A|--------|------|-------|------|--|--------|------|-------|---------|------------|-------------|
G|--------|------|-------|------|X3|--------|------|-------|---------|------------|-------------|
D|-4-4-4--|-7-7--|-------|-3-3--|--|-4-4-4--|-7-7--|-------|---------|------------|-2-2-2-2-2-2-|
A|-2-2-2--|-5-5--|-5-5-5-|-1-1--|--|-2-2-2--|-5-5--|-5-5-5-|-4-4--/--|-2-2-2-2-2-2|-0-0-0-0-0-0-|
E|--------|------|-3-3-3-|------|--|--------|------|-3-3-3-|-2-2--/--|-0-0-0-0-0-0|-------------|
                                          _____X2________    _________X2_________
Guitarra 2:                              |   MI          |  |          LA        |  dejar sonar
E|-----------------------------------|--|-----------------|-----------------------|-----------|
A|------------------------------3----|--|-----------------|--7-10-7-10-7-10-7-10--|-/-12~---|
G|4-2-4-2-4-2-4-2-4-2-4-2-4-2-4---4-2|X4|-9-7-9-7-9-7-9-7-|-----------------------|-----------|
D|-----------------------------------|--|-----------------|-----------------------|-----------|
A|-----------------------------------|--|-----------------|-----------------------|-----------|
E|-----------------------------------|--|-----------------|-----------------------|-----------|

BAJO:
G|--------|------|-------|------|--|--------|------|-------|---------|------------|-------------|
D|--------|------|-------|------|X3|--------|------|-------|---------|------------|-------------|
A|-2-2-2--|-5-5--|-------|-1-1--|--|-2-2-2--|-5-5--|-------|---------|------------|-0-0-0-0-0-0-|
E|--------|------|-3-3-3-|------|--|--------|------|-3-3-3-|-2-2-----|-0-0-0-0-0-0|-------------|


B5   D5      G5     Bb5   B5     D5         G5     Bb5
 Se aparta corriendo de mamones zoquetes y fiolos pipiolos 
B5       D5      G5    Bb5   B5         D5        G5       FA#5    MI5   LA5
 y por las dudas nunca esta cerca de las vias sin mirar atras mirar atras



VERSO 3: igual

"Boca sucia, pequeña hechicera
una pendeja que hace de vieja
tratando de que pique algún pavo injenuo"

POS VERSO 2 igual

"El jean le apreta la fresa y ella es la reina
en paredones que escracha culeando su estrella"

VERSO 4 igual

"Sueña con algun pajarraco
que le de pie y sople su amor
y la alegria por la que su mundo gira..."


ESTRIBILLO FINAL:

Guitarra 1: 
    Si5      RE5    SOL 5   Sib5        Si5    RE5    SOL 5   FA#5                 
E|--------|------|-------|------|--|--------|------|-------|---------|-----|-----|------|-------|
A|--------|------|-------|------|--|--------|------|-------|---------|-----|-----|------|-------|
G|--------|------|-------|------|X3|--------|------|-------|---------| Si5-|-RE5-|-SOL5-|--Sib5-|
D|-4-4-4--|-7-7--|-------|-3-3--|--|-4-4-4--|-7-7--|-------|---------|-----|-----|------|-------|
A|-2-2-2--|-5-5--|-5-5-5-|-1-1--|--|-2-2-2--|-5-5--|-5-5-5-|-4-4--/--|-----|-----|------|-------|
E|--------|------|-3-3-3-|------|--|--------|------|-3-3-3-|-2-2--/--|-----|-----|------|-------|

y sigue asi [Si5 - RE5 - SOL 5- FA#5 ]  [Si5  RE5 SOL5   Sib5]  [Si5 - RE5 - SOL 5- FA#5 ] [SI]

                       _____X2______       _____X2________     _________X2_______   ____X4_____
Guitarra 2:           |             |     |               |   |                  | |           |
E|----------------|--|---------------|--|-------------------|--------------10-----|12-10-12-10--|
A|----------3-----|--|---------------|--|-------------------|12-10-12-10-12--12-10|-------------|
G|4-2-4-2-4---4-2-|X8|9-7-9-7-9-7-9-7|X4|11-9-11-9-11-9-11-9|---------------------|-------------|
D|----------------|--|---------------|--|-------------------|---------------------|-------------|
A|----------------|--|---------------|--|-------------------|---------------------|-------------|
E|----------------|--|---------------|--|-------------------|---------------------|-------------|

-19~---|
---------|
---------|
---------|
---------|
---------|

BAJO: **NOTAS IGUAL QUE GUITARRA 1**


B5   D5      G5     Bb5   B5     D5         G5     Bb5
 Se aparta corriendo de mamones zoquetes y fiolos pipiolos

B5       D5    G5      Bb5   B5         D5   G5    Fa#5     
usa su lengua Como un sable mientras se rie y nos apura ...

B5       D5      G5    Bb5   B5         D5        G5        Fa#5        [Si5  RE5 SOL5   Sib5]   
 y por las dudas nunca esta cerca de las vias sin mirar atras mirar atras

[Si5 - RE5 - SOL 5- FA#5 ]    
 

FINAL [SI]

Fuente original ATAME [www.atame.org]
Colaborador original: Guillee [elguille665@hotmail.com]

Fuente: tusacordes.com