a b c d e f g h i j k l m n o p q r s t u v w x y z 0-9

Una Piba Con La Remera De Greenpeace

Patricio Rey Y Sus Redonditos De Ricota

			
Hola soy Franco Damian Roscino y aca les mando esta cancion, yo saque algunas partes, esto es mas que una
correccion de las primeras dos transcripciones,espero que les guste, ahora me estoy dedicando a sacar las 
canciones ineditas, en estos momentos me estoy dedicando a Honolulu de 1978,,,bueno chau aca aca va la cancion


1)Riff 1:     

e]-------------------------------------0-----------]
B]-------------------------------------------------]
G]-------------4----------7------------------------]
D]---0-------4---4------7---7--------5-------------]
A]-1---1---2-------2--5------------5---------------]
E]-------------------------------3-----------------] 

            
2) Puente

    
e]-3-3-2-2------------------------]
B]-3-3-3-3------------------------]
G]-2-2-2-2------0-2---------------]
D]-0-0-0-0----4-----0----2--------]
A]-------------------------3-2-0--]
E]--------------------------------]

   Riff 2:
e]----------------------------]  esto sigue despues del puente,
B]----------------------------]  Aca hace un arpegio con las siguientes notas A5 B5 C5 D5
G]----------------------------]  O podes tocar este punteo que es mas facil y son las mismas notas
D]----------2-----------------]
A]-0-2--2-3---3-2-0-2---------]
E]----------------------------]

3) Riff 3:

E:--------------------------------------
B:-----------------10-8-10-8-10-8-10-8--
G:-9-7-9-7-9-7-9-7----------------------
D:--------------------------------------
A:--------------------------------------
E:--------------------------------------


1)riff 1
Está dormida o finge que duerme,
llega una mosca y se posa en su boca.
sin embargo mi mundo termina en ella. 


Am         Emb6     C           C9/B          D    Puente
  Ya se cansó de dormir todo el tiempo en sillones
Y de taparse la boca para no gritar.


1)
Nunca supo buscarse la vida.
Su cuna fueron restos de un Mehari
Cuando se enoja chisporrotea infumable.


3) Estribillo

B5     D5         G5  F#5
  Se aparta corriendo de 
   B5       D5       G5      F#5
mamones zoquetes y fiolos pipiolos.
   B5      D5    G5     F#5
Y por las dudas nunca está -------------------Aca entra una segunda guitarra haciendo
    B5        D5   G5         F#5             el: riff 3
cerca de las vías sin mirar atrás,
         E5           A5
mirar atrás! 

1)
Boca sucia, pequeña hechicera.
Una pendeja que hace de vieja.
Tratando de que pique algun pavo ingenuo.

2)
El jean le apreta la fresa y ella es la reina.
En paredones que escracha culeando su estrella.

1)
Sueña con algún pajarraco.
que le de un pie y sople su amor.
Y la alegría por la que su mundo gira...

3)
Se aparta corriendo de 
mamones zoquetes y fiolos pipiolos.
Usa su lengua como un sable,
mientras se ríe y nos apura.
Y por las dudas nunca está cerca de las vías,
sin mirar atrás, mirar atrás! 





Acordes:
¯¯¯¯¯¯¯
		E  A  D  G  B  e
[Versos]
	B5	x  2  4  4  x  x
	D5	x  5  7  7  x  x
	G5	x  3  5  5  x  x
[Puente]
	D	x  x  0  2  3  2
	Am	x  0  2  2  1  0
	Emb6	0  2  2  0  1  0
	C	x  3  2  0  1  0
	C9/B	x  2  0  0  1  0
	D4	x  x  0  2  3  3
[Estribillo]
	B5	x  2  4  4  x  x
	D5	x  5  7  7  x  x
	G5	3  5  5  x  x  x
	A#5	6  8  8  x  x  x
	F#5	2  4  4  x  x  x
	E5	x  7  9  9  x  x
	A5	x  5  7  7  x  x

Fuente original ATAME [www.atame.org]
Colaborador original: Franco Damian Roscino [redondo_rey@hotmail.com]

Fuente: tusacordes.com