a b c d e f g h i j k l m n o p q r s t u v w x y z 0-9

Una Piba Con La Remera De Greenpeace

Patricio Rey Y Sus Redonditos De Ricota

			
-------------------------------------------------------
Legenda

<>= Armonicos                 / = Arrastres
~ = Vibratos                  p = Lidago descendente o Pull off 
__3__ = Trecillos             h = Lidado ascendente o Hammer on
^ = Estiradas o Bends         r = Soltar la estirada
x = Silencio de cuerda        s = Mover la pua rapido y continuo
                              t = tapping
---------------------------------------------------------------------------------------------

*La cancion es en Si mayor

Riff 1:
   Bb/D    B5     D5      G5 
E:-------------------------------------
B:-------------------------------------
G:----------4-------7-------12--9------
D:---0-----4-------7------12-----------
A:-1--1---2----2--5---5/10-------------
E:-------------------------------------

Riff 2:
  mim   Gadd9     D              A5      B5    C5    D5
E:------3-3-3---2-2-2----------------------------------------
B:------3-3-3---3-3-2----------------0-----0-----------0-----
G:------0-0-0---2-2-2--------------2------------5---------7--
D:--2---0-0-0---0-0-0------------2------4-----5-----7-----7--
A:--2---2-2-2-----------3-2-0---------2-----3-----5-------5--
E:--0---3-3-3------------------------------------------------

Riff 3:

E:--------------------------------------
B:-----------------10-8-10-8-10-8-10-8--
G:-9-7-9-7-9-7-9-7----------------------
D:--------------------------------------
A:--------------------------------------
E:--------------------------------------


Riff 1
Esta dormida o finge que duerme.....
Riff 2
ya se canso de dormir tanto tiempo en sillones

B5   D5      G5     Bb5   B5     D5         G5     Bb5
 Se aparta corriendo de mamones soquetes y fiolos pipiolos 
B5       D5      G5    Bb5   B5         D5        G5        Bb5     Riff 3 
 y por las dudas nunca esta cerca de las vias sin mirar atras mirar atras


 
-Espero que les haya gustado y les sea facil- 

Aguanten los redondos carajo!!!!! 

Si no les gusto chupenme un WEB-O

Un salado y abrazo Guillo       Feliz año nuevo!!!!!!!!!!

Fuente original ATAME [www.atame.org]
Colaborador original: Guillermo Belfiori [guillocharly@hotmail.com]

Fuente: tusacordes.com