a b c d e f g h i j k l m n o p q r s t u v w x y z 0-9

Un Tal Bridgitte Bardot

Patricio Rey Y Sus Redonditos De Ricota

			
Intro:
GUITARRA: MI7
e|-----------------------||
B|---5-----5------5-5-5--||
G|---7--#--7--#---7-7-7--||
D|---6-----6------6-6-6--||
A|---7-----7-------------||
E|-----------------------||

BAJO:
G|-----------------------||
D|-----------------------||
A|---7-----7------7-7-7--||
E|-----------------------||



VERSO 1:

GUITARRA: LA fraseo        LA                  LA                                  LA*    MI7
e|---|-----------------|--------------------|---------------------|---|---|---|---|-----|-------|
B|---|-----------------|--------------------|---------------------|---|---|---|---|-----|-88--88|
G|---|-----------------|--------------------|---------------------|RE7|-LA|MI7|RE7|---#-|-77#-77|
D|---|-----------------|--------------------|---------------------|---|---|---|---|-7---|-99--99|
A|-6/|-7--7--9--7--7-|--7-7--9--7--7----|--7-7--9--7--7-----|---|---|---|---|-7---|-77--77|
E|-4/|-5--5--5--5--5-|--5-5--5--5--5-8-9|--5-5--5--5--5-8-9-|---|---|---|---|-5---|-------|

BAJO: blues  LA              RE                                MI x1              LA    MI
G|--------------------|--|----------------4---|--|-----|--|-------------6---|----|-----|------|
D|----------------4---|X4|------4-4--7-7-----7|X2|--LA-|X2|-----6-6-9-9---9-|-RE-|---#-|------|
A|-------4-4--7-7---7-|--|--5-5---------------|--|-----|--|-7-7-------------|-X1-|-----|-77-77|
E|-4-5-5--------------|--|--------------------|--|-----|--|-----------------|----|--5--|------|


LA
Viejo Caryl Chessman

Viejo Caryl Chessman

respira otra vez.
RE7
Ya llegó la hora

lubrica tus branquias
LA
respira otra vez.
MI7
Viejo Caryl Chessman
RE7
gritaba enfurecido
                  LA*silencio    MI7
Un tal Brigitte Bardot.





VERSO 2: igual

LA
Si matamos el pájaros de dos tiros,

Si matamos el pájaros de dos tiros,
RE7
no es demasiado si son dos tiros,
LA
Si matamos el pájaros de dos tiros,
MI7
"No es demasiado tarde!"
RE7
gritaba enfurecido
                   LA*silencio    MI7
un tal Brigitte Bardot.



SOLO DE GUITARRA:

BAJO: blues  LA                                     LA      MI          
G|------|--|-----------------|-----|----|-----|-----|------|-------------|
D|--LA--|X3|-----------------|--RE-|-LA-|-MI--|-RE--|----#-|-------------|
A|------|--|-0-0-2-2-3-3-4-4-|--X2-|-x2-|-x1--|-x1--|------|-7-7---7-7---|
E|------|--|-----------------|-----|----|-----|-----|--5---|-------------|

     LA                               LA                           RE              RE
e|-/5-5-5--5-5-5------5------5~-|--/5-5-5--5-5-5-----------55|-----10------10/-|10-10------10/|
B|-/5-5-5--5-5-5------5------5~-|--/5-5-5--5-5-5--7------5-55|-6/7----10-7-10/-|10-10-12---10/|
G|---------------5-6-----5-6------|-------------------5h6------|-----------------|--------11----|
D|--------------------------------|----------------------------|-----------------|--------------|
A|--------------------------------|----------------------------|-----------------|--------------|
E|--------------------------------|----------------------------|-----------------|--------------|
    LA                                                    MI      RE          LA
e|--------------------------------|----------------|----12----------|----------12--12-----------|
B|--10--9--10--9--10--9---10-10~|-------10----10-|-12b---13-12-10-|---10-12b-----12b-12br-10--|
G|--9---8--9---8--9---8---9--9-~|--9h11----11----|----------------|-11------------------------|
D|--------------------------------|----------------|----------------|---------------------------|
A|--------------------------------|----------------|----------------|---------------------------|
E|--------------------------------|----------------|----------------|---------------------------|
                  
---------------|
---------------|
-11-/-10~~---| MI7
---------------|
---------------|
---------------|

VERSO 3: 

BAJO:hace distinto.
  *      LA +               RE+                        MI+               LA       MI
G|--|----------------|--|---------4---|--|------|--|--------6----|-----|--------|-------------|
D|--|---------4------|X4|---4--7----7-|X2|--LA+-|X2|---6--9---9--|--RE-|-----#--|-------------|
A|--|----4--7---7----|--|-5-----------|--|------|--|-7-----------|--x1-|--------|--7-7--7-7---|
E|-4|--5-------------|--|-------------|--|------|--|-------------|-----|---5----|-------------|

LA
Mano para hombres, mano para hombres

ayer se le dio,
RE7
mano para hombres muy dura y pesada
LA
ayer se le dio.
MI7
"Mano para hombres",
RE7
gritaba enfurecido
                   LA* silencio  MI7
un tal Brigitte Bardot.


VERSO 4: Final

LA
Viejo Caryl Chessman

Viejo Caryl Chessman

respira otra vez.
RE7
Ya llegó la hora

lubrica tus branquias
LA
respira otra vez.
MI7
Viejo Caryl Chessman
RE7
gritaba enfurecido
                  LA*silencio    final
Un tal Brigitte Bardot.

FINAL:

GUITARRA:                 LA7
e|--------------------|-0--0000000000000000000000----0--|
B|--------------------|-2--2222222222222222222222----2--|
G|---7--5-------------|-0--0000000000000000000000----0--|
D|---------7--5--7----|-2--2222222222222222222222----2--|
A|--------------------|-0--0000000000000000000000----0--|
E|--------------------|---------------------------------|
        
BAJO:                   LA
G|------------------------------------------------------|
D|------------------------------------------------------|
A|---5--3--0--------------------------------------------|
E|------------3--5-----5--55555555555555555555555----5--|

FIn.

Fuente original ATAME [www.atame.org]
Colaborador original: Guillee [elguille665@hotmail.com]

Fuente: tusacordes.com