a b c d e f g h i j k l m n o p q r s t u v w x y z 0-9

Un Poco De Amor Frances

Patricio Rey Y Sus Redonditos De Ricota

			
Intro 2º Guitarra: DO-DO-LAm-SOL

Intro 1º guitarra:
                  DO
e|-----|-8-8--------------------|-8-8--------------------|
B|-8/0-|-----10--8*-------------|-----10--8*-------------|
G|-7/0-|------------9-10-9-10-9-|------------9-10-9-10-9-|
D|-----|------------------------|------------------------|
A|-----|------------------------|------------------------|
E|-----|------------------------|------------------------|
   Lam                       Sol
e|--------------|------------|----------------|
B|--10-10-------|-10-10---8*-|-8-10-8-10-12-12|
G|--------9-----|-------9----|----------------|
D|----------10*-|------------|----------------|
A|--------------|------------|----------------|
E|--------------|------------|----------------|

DO
Una tipa rapaz
LAm
como te gusta a vos
REm7                SOL7
es tipa vino a consolarte
DO
Un poco de amor francés
    LAm
no muerde su lengua, no
    REm7                        SOL7
no es sincera, pero te gusta oírla...

Intro.

DO
Es una linda ración
      LAm
con un defecto con uno o dos
REm7                              SOL7
y es un cocktel que no se mezcla solo.

LAm
Quiere, si quiere mas
ya no la engatuzas
FA                 SOL7
Es una copa de lo mejor

cuando se ríe.

Solo 1:24: 2º Guitarra: DO - MI - REm7 - SOL7 - LAm7

1ª Guitarra: el solo empieza montado: escucha la cancion
                       DO                              MI
e|----------------------------|-- ----------------------|
B|----------------------------|---------------5---------|
G|-----5-7b8rb7p5---5-7b8-|------5-7b8----7p5h7-4-|
D|-5-7--------------7---------|--5-7--------------------|
A|----------------------------|-------------------------|
E|----------------------------|-------------------------|
                                               REm7
e|-12----------12---------12------------------------|
B|------12-12-15----15b16----15p13----15-13-----13--|
G|-----------------------------------14-------14*-----|
D|----------------------------------------------------|
A|----------------------------------------------------|
E|----------------------------------------------------|
                            SOL7                                 Lam7
|-----8----10b11rb10p8-10*-8p7---------------------------------
|8h10---10-----------------------10p8---10b11rb10-8-8*-8h10-10*
|-------------------------------------9--------------------------
|----------------------------------------------------------------
|----------------------------------------------------------------
|----------------------------------------------------------------


LAm
Quiere, si quiere mas
ya no la engatuzas
FA                 SOL7
Es una copa de lo mejor
Cuando se rie.

Intro.

El lujo es vulgaridad
dijo y me conquisto
de esa miel no comen las hormigas
Una tipa rapaz
Como te gusta a vos
Esa tipa vino a consolarte.

LAm
Quiere, si quiere mas
ya no la engatuzas
FA                 SOL7
Es una copa de lo mejor
Cuando se rie

Solo de Saxo.

Fuente: tusacordes.com