a b c d e f g h i j k l m n o p q r s t u v w x y z 0-9

Un Poco De Amor Frances

Patricio Rey Y Sus Redonditos De Ricota

			
UN POCO DE AMOR FRANCES

INTRO

e ------8-8-8-8---------------------| 
B --------------5-------------------|
G ----------------8--5-6-5-6-5------|
D ----------------------------------|
A ----------------------------------|
E ----------------------------------|

e ------8-8-8-8---------------------| 
B --------------5-------------------|
G ----------------8--5-6-5-6-5------|
D ----------------------------------|
A ----------------------------------|
E ----------------------------------|

e -------5-5-5-5------5-5-5-5--------------------7-7-7--|
B ---------------5------------5----8---8-10-8-10--------|
G -----------------5------------------------------------|
D ------------------------------------------------------|
A ------------------------------------------------------|
E ------------------------------------------------------|


-----------------------------------------------------------------------------
 LOS ACORDES DEL TEMA SON:

versos:

DO - LAm - REm - SOL ( C - a - d - G )

estribillo:

LAm - LAm - FA - SOL   ( a - F - G )
-----------------------------------------------------------------------------
  TEMA:

VERSO N° 1:

DO              lAm
Una tipa rapaz como te gusta a vos,
re                  SOL   RIFF1
esa tipa vino a consolarte.


VERSO N° 2:

DO                      lam
Un poco de amor francés no muerde su lengua, no
rem               SOL  
no es sincera, pero te gusta oírla...

-----------------------------------------------------------------------------

INTERMEDIO:
Repite Intro

-----------------------------------------------------------------------------

VERSO N° 3:

DO                       lam
Es una linda ración con un defecto con uno o dos
  rem               SOL
y es un cóctel que no se mezcla solo

-----------------------------------------------------------------------------

ESTRIBILLO:
lam
 Quiere, si quiere más 
lam
 ya no la engatusás  
FA  
 es una copa, de lo mejor... 
  SOL
... cuando se ríe...

-----------------------------------------------------------------------------
PUNTEO :

e -----------------------------|
B -----------------------------|
G ----------7-9~~-9-7---7-9~~--|
D -----5-7------------9--------|
A -----------------------------|
E -----------------------------|

e -----------------------------|
B ----------------7------------|
G ----------7-9~~---9-7-6------|
D -----5-7---------------------|
A -----------------------------|
E -----------------------------|

e ----------12-12-12---------------------|
B ----12-15----------15-13-15-13----13---|
G -------------------------------14------|
D ---------------------------------------|
A ---------------------------------------|
E ---------------------------------------|

e ---------------------------------------|
B ----------13-15-15~~-15~~-15-13-15-----|
G ----12-14------------------------------|
D ---------------------------------------|
A ---------------------------------------|
E ---------------------------------------|

e ------------------------------------|
B ---13-12----------------------------|
G ---------14-12----14~~-14--12-12----|
D ---------------14-------------------|
A ------------------------------------|
E ------------------------------------|

-----------------------------------------------------------------------------

...REPITE ESTRIBILLO...

-----------------------------------------------------------------------------

INTERMEDIO:
Repite Intro

-----------------------------------------------------------------------------
VERSO N° 4:

DO                     lam 
El lujo es vulgaridad dijo y me conquistó
rem                      SOL       RIFF2
de esa miel no comen las hormigas

VERSO N° 5:

DO              lAm
Una tipa rapaz como te gusta a vos,
rem                  SOL   RIFF3 
esa tipa vino a consolarte.
-----------------------------------------------------------------------------

...REPITE ESTRIBILLO...

-----------------------------------------------------------------------------

...SOLO DE SAXO...

-----------------------------------------------------------------------------

      ||||||||  FIN  ||||||||



BUENO RICOTEROS, ESPERO QUE LO DISFRUTEN Y LO PUEDAN TOCAR YA QUE ES MUY FACIL.
UN SALUDO MUY GRANDE AL CERE, JOA, LU, EUGE,  CARPOCAPZZA Y A TODOS LOS QUE
AMAN A LOS REDO!!!!  
los redo....vamo los redo....

MATI DELAR

Fuente original ATAME [www.atame.org]
Colaborador original: matias de la rosa [mati_125_delar@hotmail.com]

Fuente: tusacordes.com