a b c d e f g h i j k l m n o p q r s t u v w x y z 0-9

Un Poco De Amor Frances

Patricio Rey Y Sus Redonditos De Ricota

			
intro

GUITARRA:
               do                  do                       la      la       sol 

E|-----|-88888--------|---------|-88888--------|---------|55555--|5555----|-----5----5--7-7-||
B|--8/-|-------10-8~|-5656-5|-------10-8~|-5656-5|-----5-|----5---|--8----8-----------||
G|--7/-|--------------|---------|--------------|---------|------5|-----8|-------------------||
D|-----|--------------|---------|--------------|---------|-------|--------|-------------------||
A|-----|--------------|---------|--------------|---------|-------|--------|-------------------||
E|-----|--------------|---------|--------------|---------|-------|--------|-------------------||

bajo:
G|-----|--------------|---------|--------------|---------|-------|--------|-------------------||
D|-----|--------------|-2-2-52--|--------------|-2-2-52--|-------|--------|-------------------||
A|-----|-----------3-3|3------33|-----------3-3|3------33|-------|--------|---55-22-----55-220||
E|-----|--------------|---------|-3-5----------|---------|5-555-0|-3-555--|333-----533-3------||


VERSO:

do              lAm
Una tipa rapaz como te gusta a vos,
re                  sol   RIFF 1
esa tipa vino a consolarte.

guitarra:                                           RIFF 1
E|---------|-----------|------------|----------|----------------------|
B|---------|-----------|------------|----------|-------5-5------------|
G|---DO----|---LA------|----RE------|---SOL----|-----5-----7-5-----5|
D|---------|-----------|------------|----------|-5-7-----------7-5----|
A|---------|-----------|------------|----------|----------------------|
E|---------|-----------|------------|----------|----------------------|

bajo:  do      la           re         sol        sol
G|---------|-----------|------------|----------|----------------------|
D|---------|-----------|------------|----------|----------------------|
A|-3333333-|-----------|-5555555555-|----------|----------------------|
E|---------|-555555555-|------------|-33333333-|-3333333333333333333--|



2do VERSO:

do                      lam
Un poco de amor francés no muerde su lengua, no
re               sol  
no es sincera, pero te gusta oírla...


INTERMEDIO:
Repite Intro;

GUITARRA:
               do                  do                       la      la       sol 
E|-----|-88888--------|---------|-88888--------|---------|55555--|5555----|-----5----5--7-7-||
B|--8/-|-------10-8~|-5656-5|-------10-8~|-5656-5|-----5-|----5---|--8----8-----------||
G|--7/-|--------------|---------|--------------|---------|------5|-----8|-------------------||
D|-----|--------------|---------|--------------|---------|-------|--------|-------------------||
A|-----|--------------|---------|--------------|---------|-------|--------|-------------------||
E|-----|--------------|---------|--------------|---------|-------|--------|-------------------||

bajo:
G|-----|--------------|---------|--------------|---------|-------|--------|-------------------||
D|-----|--------------|-2-2-52--|--------------|-2-2-52--|-------|--------|-------------------||
A|-----|-----------3-3|3------33|-----------3-3|3------33|-------|--------|---55-22-----55-220||
E|-----|--------------|---------|-3-5----------|---------|5-555-0|-3-555--|333-----533-3------||


3er VERSO:

Do                       LA 
Es una linda ración con un defecto con uno o dos
  re               sol
y es un cóctel que no se mezcla solo


guitarra:                                          
E|-------------|-----------|------------|----------|
B|-------------|-----------|------------|----------|
G|---DO--------|---LA------|----RE------|---SOL----|
D|-------------|-----------|------------|----------|
A|-------------|-----------|------------|----------|
E|-------------|-----------|------------|----------|

bajo:  do         la           re         sol       
G|-------------|-----------|------------|----------|
D|-------------|-----------|------------|----------|
A|-333-3-3-3-3-|-----------|-5555555555-|----------|
E|-------------|-555555555-|------------|-33333333-|

guitarra 2 :  
      DO            LA         RE         SOL                                 
E|-------------|-----------|------------|----------|
B|-------------|-----------|------------|----------|
G|----------5|--------5|---------5|----------|
D|-------5-7---|-----5-7---|------5-7---|----------|
A|-------------|-----------|------------|----------|
E|-------------|-----------|------------|----------|


ESTRIBILLO:
    la              la                         fa                  sol
E|--5-------|--------5-----------------|----1------------|----3--------------|
B|--5-------|--------5-----------------|----1------------|----3--------------|
G|--5-------|--------5-----------------|----2------------|----3--------------|
D|--7-------|--------7-----------------|----3------------|----5--------------|
A|--7-------|--------7-----------------|----3------------|----5--------------|
E|--5-------|--------5-----------------|----1------------|----3--------------|
Quiere, si quiere más    ya no la engatusás      es una copa de lo    mejor cuando se ríe

BAJO:
    la              la                         fa                  sol
G|------------|----------------------------|-------------------|---------------------|
D|------------|----------------------------|-------------------|---------------------|
A|------------|----------------------------|-------------------|---------------------| 
E|--5-------|------0-5-----------------|--0-1-------0-1--|-----3-3-3-3-3-3-3-3-|



SOLO DE GUITARRA:

Guitarra 2:

Viene con el SOL desde el estribillo

[SOL - DO- MI- FA- FA#- SOL]

GUITARRA1:
  Sol fin de estrib...     DO                 MI              
E|-----------------|------------------------|---------------12------12---------------|-----
B|-----------------|------------------------|----------12-15---15b---15-13--15-13--|---------
G|------5-7/9--7/5-|-5-7b-----5-7/9--7/5--|-4~~--/-------------------------------|----
D|--5h7------------|--------5h7-------------|----------------------------------------|----------
A|-----------------|------------------------|----------------------------------------|-----
E|-----------------|------------------------|----------------------------------------|-------

   FA              FA#                         SOL                                     LA
E|--------------|------------12b-12b------|----------------------------------------|------|
B|-------13~--|------13-15-----------15p13|-15b--15-13---------------------------|------|
G|-14~--------|12-14----------------------|--------------14-12--14b14r-12-12~--|-14-|
D|--------------|---------------------------|-------------------14-------------------|------|
A|--------------|---------------------------|----------------------------------------|------|
E|--------------|---------------------------|----------------------------------------|------|
                                                                                   dejar sonando

BAJO: tonica [ Sol -DO -MI - FA -FA# -SOL ]


REPITE ESTRIBILLO..

ESTRIBILLO:
    la              la                         fa                  sol
E|--5-------|--------5-----------------|----1------------|----3--------------|
B|--5-------|--------5-----------------|----1------------|----3--------------|
G|--5-------|--------5-----------------|----2------------|----3--------------|
D|--7-------|--------7-----------------|----3------------|----5--------------|
A|--7-------|--------7-----------------|----3------------|----5--------------|
E|--5-------|--------5-----------------|----1------------|----3--------------|
Quiere, si quiere más    ya no la engatusás      es una copa de lo    mejor cuando se ríe

BAJO:
    la              la                         fa                  sol
G|------------|----------------------------|-------------------|---------------------|
D|------------|----------------------------|-------------------|---------------------|
A|------------|----------------------------|-------------------|---------------------| 
E|--5-------|------0-5-----------------|--0-1-------0-1--|-----3-3-3-3-3-3-3-3-|


INTERMEDIO:
Repite Intro;


GUITARRA:
               do                  do                       la      la       sol 
E|-----|-88888--------|---------|-88888--------|---------|55555--|5555----|-----5----5--7-7-||
B|--8/-|-------10-8~|-5656-5|-------10-8~|-5656-5|-----5-|----5---|--8----8-----------||
G|--7/-|--------------|---------|--------------|---------|------5|-----8|-------------------||
D|-----|--------------|---------|--------------|---------|-------|--------|-------------------||
A|-----|--------------|---------|--------------|---------|-------|--------|-------------------||
E|-----|--------------|---------|--------------|---------|-------|--------|-------------------||



4to VERSO:
 
guitarra 1 y bajo iguales

DO                      LA 
El lujo es vulgaridad dijo y me conquistó
RE                   SOL   RIFF2
de esa miel no comen las hormigas


guitarra 2 :  
      DO            LA         RE         RIff 2                                 
E|-------------|-----------|------------|--------------------|
B|-------------|-----------|------------|-----5--------------|
G|----------5|--------5|---------5|h7b--7-5--7b-5-5|
D|-------5-7---|-----5-7---|------5-7---|-----------7----7---|
A|-------------|-----------|------------|--------------------|
E|-------------|-----------|------------|--------------------|


5to VERSO:

do              lAm
Una tipa rapaz como te gusta a vos,
re                  sol   RIFF 3 dejar sonar la ultima nota 
esa tipa vino a consolarte.


guitarra 2 :  
      DO            LA         RE          RIff 3                                 
E|-------------|-----------|------------|-----------------------|
B|-------------|-----------|------------|-5-----5---------------|
G|----------5|--------5|---------5|b--7b--7-5--7b-5-----|
D|-------5-7---|-----5-7---|------5-7---|-------------7-----7~~-|
A|-------------|-----------|------------|-----------------------|
E|-------------|-----------|------------|-----------------------|


REPITE ESTRIBILLO



SOLO DE SAXO :

BAJO Y GUITARRA:  [DO -MI - FA -FA# -SOL ]X1


2do Solo de guitarra:

    sol                   lA                 FA                         LA
E|----------------------|-------------5-|55--8-5-------------------|-----------------------
B|-----4^5-5-5----------|-----------5---|---------------4^5-5------|---------------------5-
G|---5---------7^5--5-|-------5-7-----|---------7^5----------7^5---|-5^7--5-----------5-7--
D|-7--------------7-----|7-5-7--------|-------------7------------7-|--------7~---5-7-----
A|----------------------|---------------|----------------------------|------------5-7--------
E|----------------------|---------------|----------------------------|-----------------------


  FA            SOL                    DO
E|------------|-------------------|--------------||
B|/-10-8------|-------------------|--------------||
G|-------10-9-|-7-----7-8-7-------|-9~~~~~~~~~~--||
D|------------|---10--------10--|--------------||
A|------------|-------------------|--------------||
E|------------|-------------------|--------------||


BAJO durante el SOLO de GUITARRA:

 sol                        lA                 FA                         LA
G|----------------------|---------------|----------------------------|-----------------------
D|----------------------|---------------|----------------------------|-----------------------
A|----------------------|---------------|----------------------------|-----------------------
E|--33333333333333333-0-|-5-5-5-3-0--555|0-3--1-1-1--0-0--1-1-1-1-3/-|--5-5-5-5-5-0--------

  FA            SOL                    DO
G|------------|-------------------|--------------||
D|------------|-------------------|--------------||
A|------------|-------------------|---3--------||
E|-1-1-1-1-1-0|-33333-3-3-3-3-3-3-|--------------||

fin

Fuente original ATAME [www.atame.org]
Colaborador original: GUILLE [elguille665@hotmail.com]

Fuente: tusacordes.com