a b c d e f g h i j k l m n o p q r s t u v w x y z 0-9

Un Poco De Amor Frances

Patricio Rey Y Sus Redonditos De Ricota

			
*
 Intro:
G|-8-8-5------------|-8-8-5------------|-5-5-----5-5--------5---5--7-7-|
D|-------8--5-6-5-6-|-------8--5-6-5-6-|-----5-------5-8--8---8--------|
A|------------------|------------------|-------5-----------------------|
E|------------------|------------------|-------------------------------|

*
 Verso/Estribillo/Riff del Solo de Guitarra y Saxo:
G|----------------------------------------------|
D|----------------------------------------------|
A|-3--3x12-------------5--5x12--------------|
E|------------5--5x12-------------3--3x12---|

*
 Puente:
G|------|----------|------|----|-----------|
D|------|----------|------|----|-----------|
A|------|----------|------|----|-----------|
E|-5--|-5------|-1--|-3--|-3x9-----|

*
 Final:
G|------------|
D|------------|
A|-------2--|
E|-5-1-3------|

Escuchá la canción para saber el ritmo

Fuente original ATAME [www.atame.org]
Colaborador original: Sebastián Vidondo [rojoamargodelsiglo@yahoo.com.ar]

Fuente: tusacordes.com