a b c d e f g h i j k l m n o p q r s t u v w x y z 0-9

Un Pac-man En El Savoy

Patricio Rey Y Sus Redonditos De Ricota

			
Un pacman en el savoy

INtro:

GUITARRA:

    REm 			SOLm			REm        Solm 
e|--------------------|----------------------|-------------------|------------|
B|--------------------|--8^10^11--8^10^11-8|-------------------|--------8-8-|
G|--7^9^10--7^9^10-7|----------------------|-7^9^10--7^9v10--7-|-5-7----7-7-|X2
D|--------------------|----------------------|-------------------|------------|
A|--------------------|----------------------|-------------------|------------|
E|--------------------|----------------------|-------------------|------------|

BAjO:  REm                  SOLm                  REm              SOl m
G|--------------------|----------------------|-------------------|------------|
D|--------------------|----------------------|-------------------|------------|X2
A|--5-----7------8--0-|--------------------3-|-5-----7------8--0-|------------|
E|--------------------|--3-----5--------6----|-------------------|/-3--5--31|


VERSO:

RE               SOL
  Todo lo que está en mi nube
RE               SOL
  es nada más que tu sermón fatal.
RE               SOL
  Si tu grito es un ladrido, 
RE               SOL
  y mi cuchillo es un rayo cruel.


 guitarra:
            RE        SOL               RE                SOL*
e|---------------|------------------|-------------------|------------|
B|---------------|------------------|-------------------|------------|
G|---------------|--------------xxx-|-------------------|------------|X2
D|-------------xx|x-5-5--3--5---xxx-|--------------xxx--|------------|
A|-5-5---3--5--xx|x-----------------|-5-5---3--5---xxx--|--------3~|
E|---------------|------------------|-------------------|-3--5-6-----|
BAJO
           RE        SOL               RE                SOL*
G|---------------|------------------|-------------------|------------|
D|---0-----------|------------------|---0---------------|------------|X2
A|-5-----3--5----|------------------|-5-----3--5--------|----0-1-3-|
E|---------------|--3-3--1--3-------|-------------------|-3----------|


REPITE INTRO X1


GUITARRA:

    REm 			SOLm			REm        Solm 
e|--------------------|----------------------|-------------------|------------|
B|--------------------|--8^10^11--8^10^11-8|-------------------|--------8-8-|
G|--7^9^10--7^9^10-7|----------------------|-7^9^10--7^9v10--7-|-5-7----7-7-|X1
D|--------------------|----------------------|-------------------|------------|
A|--------------------|----------------------|-------------------|------------|
E|--------------------|----------------------|-------------------|------------|

BAjO:  REm                  SOLm                  REm              SOl m
G|--------------------|----------------------|-------------------|------------|
D|--------------------|----------------------|-------------------|------------|X1
A|--5-----7------8--0-|--------------------3-|-5-----7------8--0-|------------|
E|--------------------|--3-----5--------6----|-------------------|/-3--5--31|


2do VERSO:
----------

Toda esa batería
de risa rubia, de barrio especial.
Las nuevas supersticiones
la bobera del nuevo pac-man.



REPITE INTO: X1
-----------

ESTRIBIlLLO:
-----------
LA
  Nuestro pac-man no es de nadie,
SOL
  pero el mono es de él.
LA
  A veces gana, a veces pierde
SOLm
  como todo jugador.


guitarra:
         LA              LA            SOL                SOL
e|---------------|------------------|----------------|-----------||    |----------|
B|---------------|------------------|----------------|-----------||    |----------|
G|---------------|------------------|----------------|-----------||X 2 |----------|
D|-----7--5--7-|-----7---57-----|-----5--3-5b--|--5--3-5b||    |-3--5-6/5-|
A|---------------|------------------|----------------|-----------||    |----------|
E|--5------------|--5--------------/|-3--------------|3----------||    |----------|

BAjo:
         LA              LA            SOL                SOL
G|---------------|------------------|----------------|-----------||    |----------|
D|-----7--5---7--|-----7-5----------|-----5--3--5----|--3--5b--||X2  |----------|
A|---------------|------------------|----------------|-----------||    |----------|
E|--5------------|--5----------0-5-0|-3--------------|3---------3||    |-1--3-4/3-|


REPITE INTO: X1
-----------


3er VERSO:

---------
Un buen par de ojos de vidrio,
y tu mirada tiende a mejorar.
Las nuevas supersticiones
y todo el hambre del nuevo pac-man.


REPITE INTO: X1
-----------

SOLO DE SAXO:
------------

guitarra                                 LA               LA
e|---------------|------------------|-------------------|------------|
B|---------------|------------------|-------------------|------------|
G|-----DO5-------|-------SIb5-------|-------------------|------------|X2
D|---------------|------------------|-----7---5---7-----|---7--5-7---|
A|---------------|------------------|-------------------|------------|
E|---------------|------------------|--5----------------|-5----------|

BAJO   DO5                SIb5          LA
G|---------------|------------------|-------------------|------------|
D|---------------|------------------|-----7---5---7-----|---7--5-7---|X2
A|-3333333333333-|-1111111111111111-|-------------------|------------|
E|---------------|------------------|--5----------------|-5----------|



REPITE INTO: X1
-----------


1 VERSO:
---------
  Todo lo que está en mi nube
  es nada más que tu sermón fatal.
  Si tu grito es un ladrido, 
  y mi cuchillo es un rayo cruel.



REPITE INTO: X1
-----------


VERSO:
-----

Toda esa batería
de risa rubia, de barrio especial.
Las nuevas supersticiones
la bobera del nuevo pac-man.


REPITE INTO: X1
-----------


REPITE ESTRIBILLO:
-----------------


LA
  Nuestro pac-man no es de nadie,
SOL
  pero el mono es de él.
LA
  A veces gana, a veces pierde
SOLm
  como todo jugador.



INTRO X 3 :       y despues, en la vuelta N° 4 hace:

GUITARRA y saxo:

    REm 			SOLm			 FINAL     
e|--------------------|----------------------|--------------------------------|
B|--------------------|--8^10^11--8^10^11-8|--------------------------------|
G|--7^9^10--7^9^10-7|----------------------|-7-7--5--7----------7-5-7~~~~-|
D|--------------------|----------------------|------------7-6-5~------------|
A|--------------------|----------------------|--------------------------------|
E|--------------------|----------------------|--------------------------------|

BAjO:  REm                  SOLm                          FINAL   
G|--------------------|----------------------|--------------------------------|
D|--------------------|----------------------|--------------------------------| 
A|--5-----7------8--0-|--------------------3-|--5-5--3--5----------5-3-5----|
E|--------------------|--3-----5--------6----|-------------5-4-3------------|

" un gran jugador."..... 

fin.

Fuente original ATAME [www.atame.org]
Colaborador original: GUILLE [elguille665@hotmail.com]

Fuente: tusacordes.com