a b c d e f g h i j k l m n o p q r s t u v w x y z 0-9

Un Angel Para Tu Soledad

Patricio Rey Y Sus Redonditos De Ricota

			
------------------------------------------------------
--3-3-3-----------------------------------------------
--2-2-2--2-0------------------------------------------
--0-0-0-------4-0-------------------------------------
------------------------------------------------------


------------------------------------------------------
--3-3-3-----------------------------------------------
--4-4-4----------0------------------------------------
--5-5-5--2-0---4--------------------------------------
------------------------------------------------------
------------------------------------------------------


----5--------------3---------------2--------------3---------
-------5--------------3---------------3--------------3------
----------6--------------4---------------2--------------4---
-7--------------5--------------4--------------5-------------
------------------------------------------------------------
------------------------------------------------------------


------------------------------------------------------
----10-10-------10-10--------10-10--------10-10-------
-7---------7-7----------7-7----------7-7----------7-7-
------------------------------------------------------
------------------------------------------------------
------------------------------------------------------


------------------------------------------------------
-8-8--------8-8-------8-8-------8-8-------------------
------5-5--------5-5-------5-5-------5-5--------------
------------------------------------------------------
------------------------------------------------------
------------------------------------------------------


------------------------------------------------------
----10-10-------10-10--------10-10--------10-10-------
-7---------7-7----------7-7----------7-7----------7-7-
------------------------------------------------------
------------------------------------------------------
------------------------------------------------------


------------------------------------------------------
-8-8--------8-8-------8-8-------8-8-------------------
------5-5--------5-5-------5-5-------5-5--------------
------------------------------------------------------
------------------------------------------------------
------------------------------------------------------

Fuente original ATAME [www.atame.org]
Colaborador original: Julián [megadriver22@hotmail.com]

Fuente: tusacordes.com