a b c d e f g h i j k l m n o p q r s t u v w x y z 0-9

Un Angel Para Tu Soledad

Patricio Rey Y Sus Redonditos De Ricota

			
Intro:
G|-----------------------------------|x4
D|-----------------------------------|
A|--------------------------5-4-5-7--|
E|-5x7-3x7-2x7-0x7-----------|

 Pre-Verso:
G|---------------------|x4
D|---------------------|
A|---------------------|
E|-5--5-3--3-2--2-0-0--|

 Verso:
G|-----------------------------------|x4
D|-----------------------------------|
A|--------------------------5-4-5-7--|
E|-5x7-3x7-2x7-0x7-----------|

 Coro:
G|---------------------|x4
D|---------------------|
A|---------------------|
E|-5--5-3--3-2--2-0-0--|
 
 Verso:
G|-----------------------------------|x2
D|-----------------------------------|
A|--------------------------5-4-5-7--|
E|-5x7-3x7-2x7-0x7-----------|

 |--------------------------------|*= 7 veces
 |--------------------------------|
 |----1*----5*-7*-----------------|
 |-5*----3*-------5*-3*-5*-3*-5*--|

 Puente:
G|----------|----------|x2
D|----------|----------|
A|----------|----------|
E|-5-3-5/x--|-2-0-2/x--|

 Verso:
G|----------------------------|*= 7 veces
D|----------------------------|
A|----1*----------------------|
E|-5*----3*-5*-0*-5*-3*-5*-5*-|

 |-----------------------------------|x4
 |-----------------------------------|
 |--------------------------5-4-5-7--|
 |-5x7-3x7-2x7-0x7-----------|

 Coro:
G|---------------------|x4
D|---------------------|
A|---------------------|
E|-5--5-3--3-2--2-0-0--|

 Final:
G|-----------------------------------|x4
D|-----------------------------------|
A|--------------------------5-4-5-7--|
E|-5x7-3x7-2x7-0x7-----------|

Escuchá la canción para saber el ritmo

Fuente original ATAME [www.atame.org]
Colaborador original: Sebastián Vidondo [rojoamargodelsiglo@yahoo.com.ar]

Fuente: tusacordes.com