a b c d e f g h i j k l m n o p q r s t u v w x y z 0-9

Un Angel Para Tu Soledad

Patricio Rey Y Sus Redonditos De Ricota

			
INTRO:

  [Riff 1]X 4 + [Riff2]

Riff 1

*Skay Beilinson  guitarra
    RE                                 SOL
e|-----------------------------|----------------------------|
B|-3---------------------------|3~~~~~-3-3-----3------------|
G|-2----------2-2-------2-0----|-------0-0---0--------------|  REPITE X 4 
D|-0-0-0-0-0--0-0--0-0------4-0|-----------------0----------|    VECES
A|-----------------------------|----------------------0-2-3-|
E|-----------------------------|----------------------------|
     P.M....       ...                .....

*Semilla Bucciarelli BAJO
  RE                                  SOL
G|-----------------------------|----------------------------|
D|-----------------------------|----------------------------| REPITE X4
A|-5-5-5-5-5--5-0--5-5-5-5--5--|----------------------0-2-3-|  VECES
E|----------------------------0|3-3-3-3-3--3-0--3-3-3-------|
   PM..........    ..........   ............    .....


*SKAY BEiLINSON Guitarra

Riff 2 ( tambien se toca en el POS-VERSO )
   
   LA        Sol       RE/FA#       MIm      LA        Sol       RE/FA#      MIm   
E|--------|---------|----------|----------|--------|---------|----------|----------|
B|--------|---------|----------|----------|--------|---------|----------|----------| 
G|----2---|-----2---|-----2----|------2--2|----2---|-----2---|-----2----|------2--2|
D|----2---|-----2---|-----2----|------2--2|----2---|-----2---|-----2----|------2--2|
A|-0----0-|---------|----------|----------|-0----0-|---------|----------|----------|
E|--------|--3----3-|--2----2--|--2-0-----|--------|--3----3-|--2----2--|--2-0-----|

   LA        Sol      RE/FA#      MIm      LA        Sol       RE/FA#      MIm   
--------|---------|----------|----------|--------|---------|----------|----------||
--------|---------|----------|----------|--------|---------|----------|----------|| 
----2---|-----2---|-----2----|------2--2|----2---|-----2---|-----2----|------2--2||
----2---|-----2---|-----2----|------2--2|----2---|-----2---|-----2----|------2--2||
-0----0-|---------|----------|----------|-0----0-|---------|----------|----------||
--------|--3----3-|--2----2--|--2-0-----|--------|--3----3-|--2----2--|--2-0-----||


*BAJO 
    LA        Sol       FA#       MI         LA        Sol       FA#       MI   
G|--------|---------|----------|----------|--------|---------|----------|----------|
D|--------|---------|----------|----------|--------|---------|----------|----------| 
A|--------|---------|----------|----------|--------|---------|----------|----------|
E|-5----5-|--3----3-|--2----2--|---0-0--2/|-5-5--5-|--3----3-|--2----2--|---0-0--2/| 

 LA        Sol       FA#       MI         LA        Sol       FA#       MI      LA  RE 
--------|---------|----------|----------|--------|---------|----------|--------|--|----|
--------|---------|----------|----------|--------|---------|----------|--------|--|----| 
--------|---------|----------|----------|--------|---------|----------|--------|--|-5--|
-5-5--5-|--3----3-|--2----2--|---0-0--2/|-5-5--5-|--3----3-|--2----2--|-0-0--2/|-5|----| 


*GUITARRA 2 Toca estos Riff

   LA        Sol       FA#       MI         LA        Sol       FA#       MI   
E|--------|---------|----------|----------|--------|---------|----------|----------|
B|--------|---------|----------|-2^3-2----|--------|---------|----------|-2^3-2----| 
G|--------|---------|----------|-------2|~~~-----|---------|----------|-------2|
D|--------|---------|----------|----------|--------|---------|----------|----------| 
A|--------|---------|----------|----------|--------|---------|----------|----------|
E|--------|---------|----------|----------|--------|---------|----------|----------|

 LA        Sol       FA#       MI         LA        Sol       FA#       MI      LA  RE
--------|---------|----------|-2^3-2----|--------|-5~~~--|~~~~~~~~~~|-~~~~~--|9-|10||
--------|---------|----------|----------|5-----|---------|----------|--------|--|----|| 
--------|---------|----------|----------|--------|---------|----------|--------|--|----||
--------|---------|----------|----------|--------|---------|----------|--------|--|----|| 
--------|---------|----------|----------|--------|---------|----------|--------|--|----||
--------|---------|----------|----------|--------|---------|----------|--------|--|----|| 
 

1er VERSO:

  Bajo y Guitarra igual que el riff 1 de la Intro


NOTAS TOCADAS CON RIFF1

RE		      SOL 	
Ya sufriste cosas mejores que esta
RE		         SOL
y vas a andar esta ruta hoy cuando anochezca
RE
Tu esqueleto te trajo hasta aquí
SOL
con tu cuerpo hambriento, veloz
RE
y aquí , gracias a dios , 
SOl
uno no cree en lo que oye
 


POS-VERSO: 
----------

*Skay Beilinson

   LA        Sol       RE/FA#       MIm      LA        Sol       RE/FA#      MIm   
E|--------|---------|----------|----------|--------|---------|----------|----------|
B|--------|---------|----------|----------|--------|---------|----------|----------| 
G|----2---|-----2---|-----2----|------2--2|----2---|-----2---|-----2----|------2--2|
D|----2---|-----2---|-----2----|------2--2|----2---|-----2---|-----2----|------2--2|
A|-0----0-|---------|----------|----------|-0----0-|---------|----------|----------|
E|--------|--3----3-|--2----2--|--2-0-----|--------|--3----3-|--2----2--|--2-0-----|

   LA        Sol      RE/FA#      MIm      LA        Sol       RE/FA#      MIm   
--------|---------|----------|----------|--------|---------|----------|----------||
--------|---------|----------|----------|--------|---------|----------|----------|| 
----2---|-----2---|-----2----|------2--2|----2---|-----2---|-----2----|------2--2||
----2---|-----2---|-----2----|------2--2|----2---|-----2---|-----2----|------2--2||
-0----0-|---------|----------|----------|-0----0-|---------|----------|----------||
--------|--3----3-|--2----2--|--2-0-----|--------|--3----3-|--2----2--|--2-0-----||


*BAJO 
    LA        Sol       FA#       MI         LA        Sol       FA#       MI   
G|--------|---------|----------|----------|--------|---------|----------|----------|
D|--------|---------|----------|----------|--------|---------|----------|----------| 
A|--------|---------|----------|----------|--------|---------|----------|----------|
E|-5----5-|--3----3-|--2----2--|---0-0--2/|-5-5--5-|--3----3-|--2----2--|---0-0--2/| 

 LA        Sol       FA#       MI         LA        Sol       FA#       MI       RE 
--------|---------|----------|----------|--------|---------|----------|--------|-----|
--------|---------|----------|----------|--------|---------|----------|--------|-----| 
--------|---------|----------|----------|--------|---------|----------|--------|--5--|
-5-5--5-|--3----3-|--2----2--|---0-0--2/|-5-5--5-|--3----3-|--2----2--|-0-0--2/|-----| 



LA     SOL  RE/FA#  MI
Angel de la soledad

LA    SOL RE/FA#  MI
y de la desolación

LA      SOl      RE/FA# MI  LA
preso de tu ilusión vas a bailar

SOL   RE/FA#  MI  RE+ 2do VERSO
a bailar bailar.



2do VERSO:

  Bajo y Guitarra igual que el riff 1 de la Intro

RE
Es tan simple así
SOL
no podés elegir
RE
Claro que no siempre ¿ves? 
SOL
resulta bien



ESTRIBILLO:


LA         SIm          SOL        RE REsus4
Atado con doble cordel, el de simular
SIm              FAm#
no querés girar maniatado
SOL        LA5 Varias veces LA5  
querés faulear y arremolinar.


*Skay Beilinson Guitarra

  LA         SIm        SOL      RE REsus4   SIm      FAm#    SOL     LA5 varias veces
E|-5-5---5-|-7-7---7-|-3-3---3-|---3--3-2-|-7-7---7-|-2-2--2|--3--3-|-----------------||
B|-5-5---5-|-7-7---7-|-3-3---3-|-3-3--3-3-|-7-7---7-|-2-2--2|--3--3-|-----------------|| 
G|-5-5---5-|-8-8---8-|-3-3---3-|-2-2--2-2-|-8-8---8-|-3-3--3|--3--3-|-----------------||
D|-7---x---|-9---x---|-5---x---|-0--------|-9---x---|-4--x--|-5--x--|-7x7x7x7x7x7-----|| 
A|-7---x---|-9---x---|-5---x---|----------|-9---x---|-4--x--|-5--x--|-7x7x7x7x7x7-----||
E|-5---x---|-7---x---|-3---x---|----------|-7---x---|-2--x--|-3--x--|-5x5x5x5x5x5-----||
 
*Semilla Bucciarelli BAJO
 
 LA         SI         SOL      RE REsus4   SI       FA#     SOL     LA  
G|---------|---------|---------|----------|---------|-------|-------|-----------------||
D|---------|---------|---------|----------|---------|-------|-------|---------7-5-5---|| 
A|---------|---------|---------|-5-5-4-5-4|---------|-------|-------|------------7-7--||
E|-5-x-5---|-7-7--7-7|0-3-3-x--|----------|--7-x-7--|-2-x-2-|3-3-333|-55555555------55||




PUENTE:

  Tocarlo 2 Veces


*Skay Beilinson Guitarra 1
    RE                RE                  SOL       SOL
E|---------------|-------------------|----------|--------------------------------|
B|---10-10----10-|---10-10---10-10---|-8-8-----8|-----8-8-----8-8----------------| 
G|-7------7-7----|7-7-----7-7-----7-7|-----5-5--|-5-5-----5-5--------------------|X2
D|---------------|-------------------|----------|--------------------------------| 
A|---------------|-------------------|----------|--------------------------------|
E|---------------|-------------------|----------|--------------------------------|

*BAJO:
    RE                RE                  SOL       SOL
G|---------------|-------------------|----------|--------------------------------|
D|----5----------|-------------------|----------|--------------------------------|X2 
A|-5-----5x------|-------------------|----3-----|--------------------------------|
E|---------------|-------------------|-3----3x--|--------------------------------|


2da Guitarra:
------------
[ RE - RE - SOL - SOL  ] X2



2do ESTRIBILLO:



*2da GUITARRA  Toca igual que SKAY en el primer Estribillo:

LA        SIm
Medís tu acrobacia y saltás
SOL        RE+ PUNTEO 1 
tu secreto es:
SIm          FA#m
La suerte del principiante
SOL          LA5+ PUNTEO 2
no puede fallar



*Semilla Bucciarelli BAJO
  LA       SI         SOL    RE REsus4   SI       FA#     SOL      LA  
G|-------|---------|--------|-----------|------|------|-------|-----------------------||
D|-------|---------|--------|-----------|------|------|-------|-----------7-5--5------|| 
A|-------|---------|--------|-5-5-4-5-4-|------|------|-------|---------------7--7----||
E|-5-x-5-|-7-7--7-7|0-3-3-x-|-----------|7-x-7-|2-x-2-|3-3-333|--55555555----------555||


*Skay Beilinson Guitarra
  LA       SI         SOL    REPUNTEO1   SI     FA#     SOL      LA5 + PUNTEO2
E|-------|---------|--------|-----------|------|------|-------|------------------------||
B|-------|---------|--------|-----------|------|------|-------|------------------------||
G|-------|---------|--------|------7-7|------|------|-------|------024-4/6-6/7-7/9-9~||
D|-------|---------|--------|-4--5--7---|------|------|-------|---024------------------||
A|-------|---------|--------|5-5--------|------|------|-------|024---------------------||
E|-------|---------|--------|-----------|------|------|-------|------------------------||
                                                   


3er VERSO:

 (Se toca igual que los otros versos)


*2da Guitarra: Riff 1 de INTRO con estas notas: 
--------------

RE                   SOL           Punteo 3
Alguna vez, quizá, se te va la mano
RE                   SOL        Punteo 4
y las llamas en pena invaden tu cuerpo
RE                  SOL Punteo 5
Y caés en manos del angel de la soledad
RE 
y él ,gracias a dios,
        SOL
tampoco cree en lo que oye.


*Skay Bellinson guitarra

   RE      SOL       RE       SOL        RE     SOL      RE        SOL          
E|----|-------------|------|--10--10/x|------|10-----10|------10--|10------10-/x|
B|----|-----5-------|------|10--10----|------|--10-10--|10-10---10|--10-10--10/x| 
G|----|--------7-7|------|----------|------|---------|----------|-------------|
D|----|0-4-0--5-----|------|----------|------|---------|----------|-------------|
A|----|-------------|------|----------|------|---------|----------|-------------|
E|----|-------------|------|----------|------|---------|----------|-------------|
        Punteo 3           Punteo4         Punteo 5 Hasta el final del verso






2do POS-VERSO:

  BAJO y Guitarra Igual que en el primero



LA     SOL  RE/FA#  MI
Angel de la soledad

LA    SOL RE/FA#  MI
y de la desolación

LA      SOl      RE/FA# MI  LA
preso de tu ilusión vas a bailar

SOL   RE/FA#  MI  RE
a bailar bailar.



FINAL:

  Solo de Violin


*Guitarra:

[RE - SOL] X 4


*BAJO Toca igual que en la Intro : RIFF 1


*Guitarra 2 Toca el Punteo  5 sobre el final


 
FIN:


                           RE
E|-----------------|2~~~~~~----|
B|-----------------|3~~~~~~----|
G|-----------------|2~~~~~~----|
D|-----------------|0~~~~~~----|
A|-----------------|-------------|
E|-----------------|-------------|

*BAJO
    SOl                    RE
G|-----------------|-------------|
D|-----------------|-------------|
A|------2-3-5---0--|5----------|
E|-3--5------------|-------------|


 NOTACION:

x: nota muerta o apagada.
b: bend o en castellano: estirar cuerda
~~: efecto de vibrato 
/: slice o deslizar. 
: dejar sonar
^: enganchar nota con nota tocando una sola vez con la pua,

mandenme tabs de los redondos sobre todo los solos y los riff´s 
asi los saco a todos bien completos ,,,

Fuente original ATAME [www.atame.org]
Colaborador original: GUILLERMO [elguille665@hotmail.com]

Fuente: tusacordes.com