a b c d e f g h i j k l m n o p q r s t u v w x y z 0-9

Toxi - Taxi

Patricio Rey Y Sus Redonditos De Ricota

			
intro
guitarra
    Rem                 SOLm
E|-------------------|--------------------------------------------|
B|-------------------|--------------------------------------------|
G|---------2--0-0----|--------------------------------------------|
D|-0--0--3---------0-|-2-3-2-3-2-3--2---------------------------|X1
A|-------------------|-------------------0-1-0-1-0-1----/-3---|
E|-------------------|--------------------------------------------|

BAJO:    Rem                 SOL
G|-------------------|--------------------------------------------|
D|-------------------|--------------------------------------------|
A|---5-----5---------|--------------------------------------------|X1
E|------5-----5------|-----3----3--------3-h-4-----5----5-------|

suigue asi..
guitarra
    Rem                 SOLm
E|-------------------|--------------------------------------------|
B|-------------------|--------------------------------------------|
G|---------2--0-0----|--------------------------------------------|
D|-0--0--3---------0-|-2-3-2-3-2-3--2---------------------------|X1
A|-------------------|-------------------0-1-0-1-0-1--/3--5---|
E|-------------------|--------------------------------------------|

BAJO:    Rem                 SOL
G|-------------------|--------------------------------------------|
D|-------------------|--------------------------------------------|X1
A|---5-----5---------|--------------------------------------------|
E|------5-----5------|-----3----3--------3-h-4-----5----5-------|


VERSO 1:

Rem            solm +saxo
Te tenemos allí
Rem             solm + saxo
abandonado allí
Rem
preso como un animal
solm
como un animal feroz
Rem                          solm             INTERMEDIO 
así las cosas, la fiera más fiera ¿dónde está?


GUITARRA; nada mas HACE LOS ACORDES.

BAJO:    Rem                 SOL
G|-------------------|--------------------------------------------|
D|-------------------|--------------------------------------------|X4
A|---5-----5---------|--------------------------------------------|
E|------5-----5------|-----3----3--------3-h-4-----5----5-------|


*SAXO arregglo para guitarra  solamente en las primeras 2 vueltas.
E|-------------------|--------------------------------------------|
B|-------------------|--------------------------------------------|
G|-------------------|--------------------------------------------|
D|-------------------|-2-3-2-3-2-3--2---------------------------|X2
A|-------------------|-------------------0-1-0-1-0-1----/-3---|
E|-------------------|--------------------------------------------|


INTERMEDIO:  REPITE una parte del INTRO

guitarra
    Rem                 SOLm
E|-------------------|--------------------------------------------|
B|-------------------|--------------------------------------------|
G|---------2--0-0----|--------------------------------------------|
D|-0--0--3---------0-|-2-3-2-3-2-3--2---------------------------|X1
A|-------------------|-------------------0-1-0-1-0-1--/-5-----|
E|-------------------|--------------------------------------------|

BAJO:    Rem                 SOL
G|-------------------|--------------------------------------------|
D|-------------------|--------------------------------------------|X1
A|---5-----5---------|--------------------------------------------|
E|------5-----5------|-----3----3--------3-h-4-----5----5-------|



2 VERSO:

Rem            solm +saxo
El toxi-taxi viene y va
Rem             solm + arreglo 1
y tu sombra va detrás 
REm                       SOLm
de hordas de notables con los secretos para ser
REm                       SOLm
un negocio tan pequeño y simple como vos. PUENTE


Guitarra: Arreglo 1

E|--13b-13--13--13--13--13b--------------|
B|------------------------------11b~~~~~~--|
G|-------------------------------------------|
D|-------------------------------------------|
A|-------------------------------------------|
E|-------------------------------------------|



PUENTE:

BAJO:    Rem                 SOL
G|-------------------|--------------------------|
D|-------------------|--------------------------|X1
A|---5-----5---------|--------------------------|
E|------5-----5------|---3-3---3-h-4--5---5---|

guitarra punteo
G|17------17---------|---13------13-------------|
D|---15~-----15-~----|------11~------11-~-------|X1
A|-------------------|--------------------------|
E|-------------------|--------------------------|

y despues...

BAJO:    Rem                 SOL
G|-------------------|----------------------------------|
D|-------------------|----------------------------------|X1
A|---5-----5---------|----------------------------------|
E|------5-----5------|----3----3------3-h-4---5---5---|

guitarra punteo
G|17------17---------|---13------13-/-15b-13----------|
D|---15~-----15------|------11-----------------16-14b~|X1
A|-------------------|----------------------------------|
E|-------------------|----------------------------------|


ESTRIBILLO:

DO5                  SIb5
Un toque por si las moscas van
DO5                  SIb5     + ARREGLO 2 
y otro toque por si vas detrás
LA5                   SIb5
ya no hay tiempo de lamentos
DO5         engancha el Intro
ya no hay más.


guitarra:                                        |------------ ARREGLO 2 -------------|
E|---------|---------|--------|--------||--------------------------|-------------------------||
B|---------|---------|--------|--------||--------------------------|-------------------------||
G|---DO5---|---SIb5--|---DO5--|-SIb5---||--------------------------|-------------------------||x1
D|---------|---------|--------|--------||--------------------------|-------------------------||
A|---------|---------|--------|--------||-4h5-55--4h5-55-4h5-55-5|4h5-55--4h5-55-4h5-55-5||
E|---------|---------|--------|--------||--------------------------|-------------------------||

Bajo:
    do       sib       do        sib
G|---------|---------|--------|--------||--------------------------|-------------------------||
D|---------|---------|--------|--------||--------------------------|-------------------------||x1
A|333333333|111111111|33333333|11111111||-4h5-55--4h5-55-4h5-55-5|4h5-55--4h5-55-4h5-55--

Fuente original ATAME [www.atame.org]
Colaborador original: GUILLE [elguille665@hotmail.com]

Fuente: tusacordes.com