a b c d e f g h i j k l m n o p q r s t u v w x y z 0-9

Todo Un Palo

Patricio Rey Y Sus Redonditos De Ricota

			
Bueno, aca esta el solo final... cualquier duda manden un mail a vamos-las-bandas@hotmail.com


							  	       Mantener Estirada hasta el 3er 6
|----6--8-8^--|----6--------5^-5^-------|----------3^-3^-----3^-3^-----|-------------------------------|-----------7^-8-8-8--|
|-/8----------|-/8---8-6----6^-6^-------|----------4^-4^-----4^-4^-----|--6^-6^-6^-4--6--6h4---4-------|-------6^-------------|
|-------------|----------8---------8--5-|-5---3-5--------5-------5-|---------------------5---3-3h5-|---3-5----------------|
|-------------|-------------------------|---5--------------------------|-------------------------------|-5--------------------|
|-------------|-------------------------|------------------------------|-------------------------------|----------------------|
|-------------|-------------------------|------------------------------|-------------------------------|----------------------|


|-/13^-13^-13^-13h11-----|--------------15---15----15----15----15---15--|--15^----------------------------|-----------3-3-3-3-|
|--------------------13~-|-11/13---15^--15^---15^---15^---15^--15^----|--15^--15-15~----13--------------|-----------4-4-4-4-|
|------------------------|----------------------------------------------|--------------15------/8-8-8--5~-|--5---3-5--5-----5-|
|------------------------|----------------------------------------------|---------------------------------|----5--------------|
|------------------------|----------------------------------------------|---------------------------------|-------------------|
|------------------------|----------------------------------------------|---------------------------------|-------------------|

                                                                                     Se va llendo con Fade Out
|-3-3-3-3-----------------------|-------8--8-8--6^-3-3--|--11h8---------------|-------------------3-3-3-3-3-3-3-3-3-3--|
|-4-4-4-4--6^-6^-6^-6^-6^-6^-6^-|-4-----8--8-8-----4-4--|-------11h8-11/13~---|-------------------4-4-4-4-4-4-4-4-4-4--|
|-5-----5-----------------------|---5~-------------5-5--|---------------------|-10^-10h8----8-----5-----5-----5-----5--|
|-------------------------------|----------------------------|---------------------|---------10---10------------------------|
|-------------------------------|----------------------------|---------------------|----------------------------------------|
|-------------------------------|----------------------------|---------------------|----------------------------------------|

|-----------------------|-------8--8-8--6^-3-3--|
|-6^-6^-6^-6^-6^-6^-6^--|-4-----8--8-8-----4-4--|
|-----------------------|---5~-------------5-5--|
|-----------------------|----------------------------|
|-----------------------|----------------------------|
|-----------------------|----------------------------|

Fuente original ATAME [www.atame.org]
Colaborador original: Julián [vamos-las-bandas@hotmail.com]

Fuente: tusacordes.com