a b c d e f g h i j k l m n o p q r s t u v w x y z 0-9

Todo Un Palo

Patricio Rey Y Sus Redonditos De Ricota

			
Guitarra 1
es conveniente que se junte con la guitarra 2 y el bajo que he escrito



E||------------------------|----------------------|--5----5----5--5----5--|
B||------------------------|----------------------|--5----5----5--6----6--|
G||-------2----2--------3--|------3----3--2-------|--5----5----5--5----5--|
D||--0------------3p-0-----|-----------------3----|-----------------------|
A||------------------------|----------------------|-----------------------|
E||------------------------|----------------------|-----------------------|



--6----6----6--5--5----|------------------------|----------------------|
--6----6----6--6--5----|------------------------|----------------------|
--5----5----5--5--5----|-------2----2--------3--|------3----3--2-------|
-----------------------|--0------------3p-0-----|-----------------3----|
-----------------------|------------------------|----------------------|
-----------------------|------------------------|----------------------|



--5----5----5--5----5--|--6----6----6--5--5----|------------------------|
--5----5----5--6----6--|--6----6----6--6--5----|------------------------|
--5----5----5--5----5--|--5----5----5--5--5----|-------2----2--------3--|
-----------------------|-----------------------|--0------------3p-0-----|
-----------------------|-----------------------|------------------------|
-----------------------|-----------------------|------------------------|



----------------------|--5----5----5--5----5--|--6----6----6--5--5----|
----------------------|--5----5----5--6----6--|--6----6----6--6--5----|
------3----3--2-------|--5----5----5--5----5--|--5----5----5--5--5----|
-----------------3----|-----------------------|-----------------------|
----------------------|-----------------------|-----------------------|
----------------------|-----------------------|-----------------------|



------------------------|----------------------|--5----5----5--5----5--|
------------------------|----------------------|--5----5----5--6----6--|
-------2----2--------3--|------3----3--2-------|--5----5----5--5----5--|
--0------------3p-0-----|-----------------3----|-----------------------|
------------------------|----------------------|-----------------------|
------------------------|----------------------|-----------------------|



--6----6----6--5--5----|------------------------|------------------------|
--6----6----6--6--5----|------------------------|------------------------|
--5----5----5--5--5----|--5----x--5-------5-----|--5----x--5-------5-----|
-----------------------|--5----x--5----5-----5--|--5----x--5----5-----5--|
-----------------------|--3----x--3-------------|--3----x--3-------------|
-----------------------|------------------------|------------------------|



------------------------|------------------------|------------------------|
------------------------|------------------------|------------------------|
--5----x--5-------5-----|--5----x--5-------5-----|--5----x--5-------5-----|
--5----x--5----5-----5--|--5----x--5----5-----5--|--5----x--5----5-----5--|
--3----x--3-------------|--3----x--3-------------|--3----x--3-------------|
------------------------|------------------------|------------------------|



------------------------|------------------------|------------------------|
------------------------|------------------------|------------------------|
--5----x--5-------5-----|--5----x--5-------5-----|--5----x--5-------5-----|
--5----x--5----5-----5--|--5----x--5----5-----5--|--5----x--5----5-----5--|
--3----x--3-------------|--3----x--3-------------|--3----x--3-------------|
------------------------|------------------------|------------------------|



------------------------|----------------------|--5----5----5--5----5--|
------------------------|----------------------|--5----5----5--6----6--|
-------2----2--------3--|------3----3--2-------|--5----5----5--5----5--|
--0------------3p-0-----|-----------------3----|-----------------------|
------------------------|----------------------|-----------------------|
------------------------|----------------------|-----------------------|



--6----6----6--5--5----|------------------------|----------------------|
--6----6----6--6--5----|------------------------|----------------------|
--5----5----5--5--5----|-------2----2--------3--|------3----3--2-------|
-----------------------|--0------------3p-0-----|-----------------3----|
-----------------------|------------------------|----------------------|
-----------------------|------------------------|----------------------|



--5----5----5--5----5--|--6----6----6--5--5----|------------------------|
--5----5----5--6----6--|--6----6----6--6--5----|------------------------|
--5----5----5--5----5--|--5----5----5--5--5----|-------2----2--------3--|
-----------------------|-----------------------|--0------------3p-0-----|
-----------------------|-----------------------|------------------------|
-----------------------|-----------------------|------------------------|



----------------------|--5----5----5--5----5--|--6----6----6--5--5----|
----------------------|--5----5----5--6----6--|--6----6----6--6--5----|
------3----3--2-------|--5----5----5--5----5--|--5----5----5--5--5----|
-----------------3----|-----------------------|-----------------------|
----------------------|-----------------------|-----------------------|
----------------------|-----------------------|-----------------------|



------------------------|----------------------|--5----5----5--5----5--|
------------------------|----------------------|--5----5----5--6----6--|
-------2----2--------3--|------3----3--2-------|--5----5----5--5----5--|
--0------------3p-0-----|-----------------3----|-----------------------|
------------------------|----------------------|-----------------------|
------------------------|----------------------|-----------------------|



--6----6----6--5--5----|------------------------|------------------------|
--6----6----6--6--5----|------------------------|------------------------|
--5----5----5--5--5----|--5----x--5-------5-----|--5----x--5-------5-----|
-----------------------|--5----x--5----5-----5--|--5----x--5----5-----5--|
-----------------------|--3----x--3-------------|--3----x--3-------------|
-----------------------|------------------------|------------------------|



------------------------|------------------------|------------------------|
------------------------|------------------------|------------------------|
--5----x--5-------5-----|--5----x--5-------5-----|--5----x--5-------5-----|
--5----x--5----5-----5--|--5----x--5----5-----5--|--5----x--5----5-----5--|
--3----x--3-------------|--3----x--3-------------|--3----x--3-------------|
------------------------|------------------------|------------------------|



------------------------|------------------------|------------------------|
------------------------|------------------------|------------------------|
--5----x--5-------5-----|--5----x--5-------5-----|--5----x--5-------5-----|
--5----x--5----5-----5--|--5----x--5----5-----5--|--5----x--5----5-----5--|
--3----x--3-------------|--3----x--3-------------|--3----x--3-------------|
------------------------|------------------------|------------------------|



-------------------||
--3----------------||
--2----------------||
--0----------------||
-------------------||
-------------------||

Fuente original ATAME [www.atame.org]
Colaborador original: Cabrera Pablo [cabre_pablo@yahoo.com.ar]

Fuente: tusacordes.com