a b c d e f g h i j k l m n o p q r s t u v w x y z 0-9

Todo Un Palo

Patricio Rey Y Sus Redonditos De Ricota

			
Intro
G|---------------------------------|x3
D|---4-7---------------------------|
A|-5-----5-----22-55-------55------|
E|----------33-------33--------33--|

 |-----------------------|
 |---4-7-----------------|
 |-5-----5-----22-55-----|
 |----------33-------33--|

 |-------------------|x4
 |------------3------|
 |-3x12-4-5---5-4--|
 |-------------------|

Verso
G|--------------------------------|x4
D|-------------4-7----------------|
A|-55--------5-----5-----22-55----|
E|-----33-------------33-------33-|

Puente
G|-----------------|x4
D|------------3----|
A|-3x12-4-5---5--|
E|-----------------|

Coro
G|---------------------|x4
D|---------------------|
A|-1x8--------3x16-|
E|-------1x8---------|

Verso
G|--------------------------------|x4
D|-------------4-7----------------|
A|-55--------5-----5-----22-55----|
E|-----33-------------33-------33-|

Puente
G|-----------------|x4
D|------------3----|
A|-3x12-4-5---5--|
E|-----------------|

Coro
G|---------------------|x4
D|---------------------|
A|-1x8--------3x16-|
E|-------1x8---------|

Solo de Saxo
G|--------------------------------|x2
D|-------------4-7----------------|
A|-55--------5-----5-----22-55----|
E|-----33-------------33-------33-|

Puente
G|-----------------|x4
D|------------3----|
A|-3x12-4-5---5--|
E|-----------------|

Coro
G|---------------------|x4
D|---------------------|
A|-1x8--------3x16-|
E|-------1x8---------|

Verso
G|--------------------------------|x4
D|-------------4-7----------------|
A|-55--------5-----5-----22-55----|
E|-----33-------------33-------33-|

Puente
G|-----------------|x4
D|------------3----|
A|-3x12-4-5---5--|
E|-----------------|

Coro+SolodeSaxo+SolodeGuitarra
***HASTA EL FINAL***
G|---------------------|x20 (+o-)
D|---------------------|
A|-1x8--------3x16-|
E|-------1x8---------|

Escuchá la canción para saber el ritmo

Fuente original ATAME [www.atame.org]
Colaborador original: Sebastián Vidondo [rojoamargodelsiglo@yahoo.com.ar]

Fuente: tusacordes.com