a b c d e f g h i j k l m n o p q r s t u v w x y z 0-9

Todo Preso Es Politico

Patricio Rey Y Sus Redonditos De Ricota

			
INTRO:

GUITARRA:
  PARTE A                                  PARTE B
e|--------------------------------|--|-----------------------.----------|
B|------------------------------4-|--|-----------------------.--4-------| todo esto
G|------------------6----6------5-|X2|-----------------------.-5--------|  X 2
D|-6-6-6-6-6-6--7-9---9----9~-----|--|---9-----------------.----9---|
A|--------------------------------|--|---9-----------------.----9---|
E|--------------------------------|--|---7-----------------.----7---|

BAJO:   MI                         SI
G|-------------------------|--|-------------------------------.----------------------------|todo
D|-------------------------|X2|-------------------------------.----------------------------| X2
A|-------------------------|--|-----------------------9-7-6---.----------------9-7-6-------|
E|--0--0--0--0--0--0--0--0-|--|9-8-7--7-7-5-7---7-7-------7-.-0-5-7--7-7-5-7-------7-7-5-|


SAXO: en la intro
e|---------------------------|-----------------------------||
B|-12-12-------------------|-12-12-------10------------||
G|---------11-9-8--9--9----|---------11-13----11-13-13-||
D|----------------------9----|-----------------------------||
A|---------------------------|-----------------------------||
E|------------------------7~-|-----------------------------||


VERSO 1:

GUITARRA:
      MI                                  SI
e|---------------------------------||-----------------------.------------|
B|---------------------------------||-----------------------.-4----------| 
G|--9---------------9-9-9------9-||-----------------------.-5----------| X 2
D|--9---------------9-9-9------9-||---9-----------------.----999---|
A|--7---------------7-7-7--------||---9-----------------.----999---|
E|---------------------------------||---7-----------------.----777---|

BAJO:   MI                         SI
G|-------------------------|--|-------------------------------.----------------------------|todo
D|-------------------------|X2|-------------------------------.----------------------------| X2
A|-------------------------|--|-----------------------9-7-6---.----------------9-7-6-------|
E|--0--0--0--0--0--0--0--0-|--|9-8-7--7-7-5-7---7-7-------7-.-0-5-7--7-7-5-7-------7-7-5-|


SAXO: igual
e|---------------------------|-----------------------------||
B|-12-12-------------------|-12-12-------10------------||
G|---------11-9-8--9--9----|---------11-13----11-13-13-||
D|----------------------9----|-----------------------------||
A|---------------------------|-----------------------------||
E|------------------------7~-|-----------------------------||


MI
si esta carcel sigue asi
                     SI + saxo   
todo preso es politico uoooooo
    MI
reos de la sociedad 
                       SI + saxo  
si tu preso es politico uoooooooo



ESTRIBILLO 1:

GUITARRA:
      DO#                             SI
e|--------------------------||-----------------------------------|
B|--5--5-4---5-4----------||-----------------------------------| 
G|--6------6------6--/----||-----------------------------------| X 2
D|--6---------------------||--9-9---9--9-9-9-9-9-9-9-0-----|
A|--4---------------------||--9-9-x-9--9-9-9-9-9-9-9-0-----|
E|--------------------------||--7-7-x-7--7-7-7-7-7-7-7-0-----|


Do#m           Si
el ascensor ya sube
Do#m            Si
tu confesion ya sube

BAJO: DO#                        SI
G|--------------------------||-------------------------------------|
D|--------------------------||-------------------------------------|X2
A|-4------------------4-2-||-------------------------------------|
E|--------------------------||---7-7--7-7-5-7--7-7--7-7-5-7--7-8---|


PUENTE: como INTRO

GUITARRA:
  PARTE A                                  PARTE B
e|--------------------------------|--|-----------------------.----------|
B|------------------------------4-|--|-----------------------.--4-------| 
G|------------------6----6------5-|X2|-----------------------.-5--------|  X 1
D|-6-6-6-6-6-6--7-9---9----9~-----|--|---9-----------------.----9---|
A|--------------------------------|--|---9-----------------.----9---|
E|--------------------------------|--|---7-----------------.----7---|

BAJO:   MI                         SI
G|-------------------------|--|-------------------------------.----------------------------|
D|-------------------------|X2|-------------------------------.----------------------------| x1
A|-------------------------|--|-----------------------9-7-6---.----------------9-7-6-------|
E|--0--0--0--0--0--0--0--0-|--|9-8-7--7-7-5-7---7-7-------7-.-0-5-7--7-7-5-7-------7-7-5-|


SAXO: en la intro
e|---------------------------|-----------------------------||
B|-12-12-------------------|-12-12-------10------------||
G|---------11-9-8--9--9----|---------11-13----11-13-13-||
D|----------------------9----|-----------------------------||x1
A|---------------------------|-----------------------------||
E|------------------------7~-|-----------------------------||


VERSO 2: Igual
  MI
 "obligados a escapar
                     SI+SAXO
 somos presos politicos uooooo
 MI
 reos de la propiedad 
                SI+SAXO
 los esclavos politicos"



ESTRIBILLO 2: Igual

Do#m           Si
el ascensor ya sube
Do#m            Si
tu confesion ya sube



SOLO DE SAXO: 

GUITARRA: [LA5-MI5 7traste- SI5] X2

BAJO:  LA         MI             SI                            LA            MI             Si =
G|-----------|----------------|---------------------------|---------------|----------------|----|
D|-----------|----------------|---------------------------|---------------|----------------|-Si-|
A|-------4-5-|-7--------------|---------------------------|---------------|----------------|----|
E|-5-5-5-----|---0--0-0-4-5-6-|-7-7--7-7-5-7--7-7-7-7-7-7-|-5--5-5-5--2-1-|-0--0-0-0-4-5-6-|----|


INTERMEDIO:

GUITARRA:
e|----------------------------|--|------------------------------------------------------------|
B|----------------------------|--|------------------------------------------------------------|
G|----------------------------|x2|------------------------------------------------------------|
D|------------------------2-4-|--|0-2-2--2-1-1-1------------------------------9-9-9-9-9-9-9-9-|
A|----------2-4---0-0-3-4-----|--|---------------4-4-4--2-2-2-----------------9-9-9-9-9-9-9-9-|
E|--0-0-3-4-------------------|--|----------------------------5-5-5--4-4-4-/--7-7-7-7-7-7-7-7-|

BAJO:
G|----------------------------|--|------------------------------------------------------------|
D|------------------------2-4-|X2|0-2-2--2-1-1-1----------------------------------------------|
A|----------2-4---0-0-3-4-----|--|---------------4-4-4--2-2-2---------------------------------|
E|--0-0-3-4-------------------|--|----------------------------5-5-5--4-4-4-/--7-7-7-7-7-7-7-7-|


DESPUES...
GUITARRA:
   MI                   LA                 MI        RE       LA     SI
e|----------------------------------|--|-----0-|---------|------|---------------------||
B|----------------------------------|--|-----8-|---------|------|---------------------||
G|-------9--------9-----------------|X6|-9-9-|-7-7-7-|------|---------------------||
D|-------9--x-x---9--x-7--7-x--7--|--|-9-9-|-7-7-7-|-7--|--9-9-9-9-9-9-9-9-9--||
A|-77777----x-x---7--x-7--7-x--7--|--|-7-----|-5-5---|-7--|--9-9-9-9-9-9-9-9-9--||
E|---------------------5----------|--|---------|---------|-5--|--7-7-7-7-7-7-7-7-7--||
PM......

BAJO:   mi              LA                mi        RE           LA          SI
G|----------------|---------------|--|-----------|------------|-----------|--------------------|
D|----------------|---------------|X6|-----------|------------|-----------|--------------------|
A|-7-7-7-7-7-7----|---------------|--|-7-77-7-6|5-5-5-5-0-|-----------|--------------------|
E|-------------0--|-5-5-5-5-5-5-5-|--|-----------|------------|-5-5-555-|--7-7-7-7-7-7-7-7-7-|

  mi la
    "detenganme
  mi la
     detenganme
 mi la
    "detenganme
  mi la
    "detenganlos
  mi la
     detenganloooos 
  mi la          MI- -re-la- si
     detenganlooos


REPITE PUENTE: igual


VERSO 3: igual

MI                                         Si+saxo
 "15 años pago ayer con tres .... politicos uooooo
MI                                     Si+saxo
  todos esquivandole, temerosos politicos uoooooo.


ESTRIBILLO 3: igual

Do#m           Si
el ascensor ya sube
Do#m            Si
tu confesion ya sube


REPITE PUENTE: igual


VERSO 4. igual

MI
si esta carcel sigue asi
                     SI + saxo   
todo preso es politico uoooooo
    MI
un comun va a pestañar
                       SI + saxo  
si tu preso es politico uoooooooo



ESTRIBILLO 4:igual

Do#m           Si
el ascensor ya sube
Do#m            Si
tu confesion ya sube


SOLO DE SAXO 2: Igual al 1


INTERMEDIO: igual

GUITARRA:
e|----------------------------|--|------------------------------------------------------------|
B|----------------------------|--|------------------------------------------------------------|
G|----------------------------|x2|------------------------------------------------------------|
D|------------------------2-4-|--|0-2-2--2-1-1-1------------------------------9-9-9-9-9-9-9-9-|
A|----------2-4---0-0-3-4-----|--|---------------4-4-4--2-2-2-----------------9-9-9-9-9-9-9-9-|
E|--0-0-3-4-------------------|--|----------------------------5-5-5--4-4-4-/--7-7-7-7-7-7-7-7-|


final : 
GUITARRA:
   MI                   LA                 MI        RE       LA     SI
e|----------------------------------|--|-----0-|---------|------|---------------------||
B|----------------------------------|--|-----8-|---------|------|---------------------||
G|-------9--------9-----------------|X6|-9-9-|-7-7-7-|------|---------------------||
D|-------9--x-x---9--x-7--7-x--7--|--|-9-9-|-7-7-7-|-7--|--9-9-9-9-9-9-9-9-9--||
A|-77777----x-x---7--x-7--7-x--7--|--|-7-----|-5-5---|-7--|--9-9-9-9-9-9-9-9-9--||
E|---------------------5----------|--|---------|---------|-5--|--7-7-7-7-7-7-7-7-7--||
PM......

BAJO cambia         __________________X2_________________
       mi       LA   |      MI                    LA       |            
G|-------|-------|--|-------------------|--------------------|-----|-----|-----|-----|
D|-------|-------|X4|-------------------|--------------------|-MI--|-RE--|-LA--|-SI--|
A|-------|-------|--|-------------------|12-12-10-10-9-9-7-7-|-----|-----|-----|-----|
E|0000000|-555555|--|12-12-10-10-9-9-7-7|--------------------|-----|-----|-----|-----|


  mi la
    "detenganme
  mi la
     detenganme
 mi la
    "detenganme
  mi la
    "detenganlos
  mi la
     detenganloooos 
  mi la          MI- -re-la- si
     detenganlooos


repite el INTERMEDIO :

GUITARRA:
e|--------------------------|--|----------------------------------------------------------------|
B|--------------------------|--|----------------------------------------------------------------|
G|--------------------------|x2|-------------------------------------------------------------9|
D|-----------------------2-4|--|0-2-2--2-1-1-1------------------------------9-9-9-9-9-9-9-9--9|
A|---------2-4---0-0-3-4----|--|---------------4-4-4--2-2-2-----------------9-9-9-9-9-9-9-9--7|
E|-0-0-3-4------------------|--|----------------------------5-5-5--4-4-4-/--7-7-7-7-7-7-7-7-----|

BAJO:
G|--------------------------|--|----------------------------------------------------------------|
D|-----------------------2-4|X2|0-2-2--2-1-1-1--------------------------------------------------|
A|---------2-4---0-0-3-4----|--|---------------4-4-4--2-2-2----------------------------------7|
E|-0-0-3-4------------------|--|----------------------------5-5-5--4-4-4-/--7-7-7-7-7-7-7-7-7---|


 fin

Fuente original ATAME [www.atame.org]
Colaborador original: Guille [elguille665@hotmail.com]

Fuente: tusacordes.com