a b c d e f g h i j k l m n o p q r s t u v w x y z 0-9

Todo Preso Es Politico

Patricio Rey Y Sus Redonditos De Ricota

			
@GU@NTë §K@Ÿ!!!
V=vivrato                                     

                                                 __
-------------------------------------------------- |
-------------------------------5------------------ |
-------------4-6-4-6-4-6-4v--4------------------ |X2
---6-6-6-6-6-------------------------------------- |
-------------------------------------------------- |
-------------------------------------------------- |
                                                 ¯¯ 
                                                 __
-------------------------------------------------- |
------------7-5-4-5-7-5--------------------------- |
---4-4------------------4v---------------------- |X2
---4-4-------------------------------------------- |
---2-2-------------------------------------------- |
-------------------------------------------------- |   
                                                 ¯¯
                                                 __ 
-------------------------------------------------- |
-------------------------------5------------------ |
-------------4-6-4-6-4-6-4v--4------------------ |X2
---6-6-6-6-6-------------------------------------- |
-------------------------------------------------- |
-------------------------------------------------- |
                                                 ¯¯
                                                 __
-------------------------------------------------- |
------------7-5-4-5-7-5--------------------------- |
---4-4------------------4v---------------------- |X2
---4-4-------------------------------------------- |
---2-2-------------------------------------------- |
-------------------------------------------------- |   
                                                 ¯¯ 

--------------------------------------------------
--------------------------------------------------
--------------------------------------------------
------------------------2-4--------------------2-4
-----------2-4--0-0-3-4--------------2-4--0-0-----
--0-0-3-4-------------------0-0-3-4---------------
                                                  
-------------------------------------------------- 
--------------------------------------------------
--------------------------------------------------
--------------------------------------------------
--7-7-7--6-6-6--4-4-4--2-2-2--0-0-0--------2v---
-------------------------------------4-4-4--------

Fuente original ATAME [www.atame.org]
Colaborador original: Julián [skaybeilinson_1@hotmail.com]

Fuente: tusacordes.com