a b c d e f g h i j k l m n o p q r s t u v w x y z 0-9

Tarea Fina

Patricio Rey Y Sus Redonditos De Ricota

			
SOLO


   e------------------------------------------
   b----------------------5---3---5-----------
   g--12--9--12~--9~------------------2-------
   d------------------------------------------
   a------------------------------------------  X2
   E------------------------------------------

   notas que acompañan al saxo
   e------------------------------------------
   b---------2--444--5--4-5-7-99~-------------
   g---2--4-----------------------------------
   d------------------------------------------
   a------------------------------------------
   E------------------------------------------


   FACUNDO MADRID
   ROSARIO
   AGUANTE LA RUINA CARAJO!

Fuente original ATAME [www.atame.org]
Colaborador original: Facundo Madrid [iguanadie@hotmail.com]

Fuente: tusacordes.com