a b c d e f g h i j k l m n o p q r s t u v w x y z 0-9

Susanita

Patricio Rey Y Sus Redonditos De Ricota

			
INTRO... 
                                                                                
            LA                                MI                                    PRE-verso
E|------------------------------------|---------------------------------------|  |------------|-|
B|------------------------------------|---------------------------------------|  |------------|-|
G|------------------------------------|---------------------------------------|X4|------------|-|
D|-2---4--2--4---2-2---2-4-2-2-------2|---------------------------------------|  |--9-9--7-7-0|-|
A|-0---0--0--0---0-0---0-0-0-0--3-4--0|--2-2--4-2--5-2--4-2--2--4-2--5-2--4-|  |/-7-7--5-5-0|7|
E|------------------------------------|--0-0--0-0--0-0--0-0--0--0-0--0-0--0-|  |------------|5|
     LA                                    MI   
E|------------------------------------|---------------------------------------|  |------------|-|
B|------------------------------------|---------------------------------------|  |------------|-|
G|------------------------------------|--7--7--5-4----4------7---7--5-4----4--|X4|7777----5p0-|-|
D|-5---5---3-2--0-2---5---5---3-2--0-2|------------7--------------------7-----|  |------------|5|

VERSO 1:  guitarra
  LA                                 RE          LA                           RE    RE
E|---------------------------------|--------|--------------------------------|-----|--------|---
B|---------------------------------|3----3|--------------------------------|3--|-3-3-3-3|---
G|-------2---2-2----2---2-2------|2----2|-------2---2-2----2---2-2-----|2--|-2-2-2-2|----
D|-------2-4-2-2-4--2---2-2------|0----0|-------2-4-2-2-4--2---2-2-----|0--|-0-0-0-0|---
A|7------0-----0--0---0---2-3-4|--------|7------0-----0--0---0---3-2-|-----|--------|---
E|5------------------------------|--------|5-----------------------------|-----|--------|----
                              PM...
          MI
E|-----|----------------------------||
B|-----|---------9---7------5~----||
G|-----|----------------------------||
D|--LA-|--9--9---9---7--5---------||
A|-----|--7-----------------------||
E|-----|----------------------------||

BAJO:      LA                            RE x 2           LA X2        re x3  la X2    MI
G|---------------------------------||---------------||--------------||------||-----||--------|
D|---------------------------------||---------------||--------------||-RE=--||-LA=-||--------|
A|------------------------0---2-3-4||-5-5--3-2--0-2-||--------------||-X-3--||-X-2-||-7----|
E|5--------5------5------------||---------------||-5-5--3-2--0-2||------||-----||--------|


LA
 Susanita... tan bonita!
RE                         LA
  una nena que tu padre trajo
RE
  vino un gato y festejo a la nena 
              LA
que tu padre trajo

             MI + riff 1
Asi es este amor
            LA puente
no television


PUENTE: igual a intro  pero X2
 
Guitarra                                                                          
            LA                                MI                                      PRE-verso
E|------------------------------------|---------------------------------------|  |------------|-|
B|------------------------------------|---------------------------------------|  |------------|-|
G|------------------------------------|---------------------------------------|X2|------------|-|
D|-2---4--2--4---2-2---2-4-2-2-------2|---------------------------------------|  |--9-9--7-7-0|-|
A|-0---0--0--0---0-0---0-0-0-0--3-4--0|--2-2--4-2--5-2--4-2--2--4-2--5-2--4-|  |/-7-7--5-5-0|7|
E|------------------------------------|--0-0--0-0--0-0--0-0--0--0-0--0-0--0-|  |------------|5|
 BAJO:     LA                                    MI   
E|------------------------------------|---------------------------------------|  |------------|-|
B|------------------------------------|---------------------------------------|  |------------|-|
G|------------------------------------|--7--7--5-4----4------7---7--5-4----4--|X2|7777----5p0-|-|
D|-5---5---3-2--0-2---5---5---3-2--0-2|------------7--------------------7-----|  |------------|5|


VERSO 2: igual al 1

LA
Su pelo endulza 
RE                        LA
y a nadie le amarga un dulce
RE
vino un gato y festejo lo dulce
                LA
que tu padre trajo


             MI + riff 1
Asi es este amor
            LA puente
no television


SOLO DE GUITARRA:

BAJO:
     LA                                    MI   
E|------------------------------------|---------------------------------------|  
B|------------------------------------|---------------------------------------|  
G|------------------------------------|--7--7--5-4----4------7---7--5-4----4--|X4
D|-5---5---3-2--0-2---5---5---3-2--0-2|------------7--------------------7-----|  

GUITARRA 2: hace [LA- MI- LA- MI] como en intro


Guitarra 1 solo

E|-------------------------|------------------------|-------------|---------------|----------
B|-------------------------|------------------------|-------------|---17----------|----------
G|---------------9b--------|--/9--9-9-/7---9-/12b-|-10----------|16b---17-16-14-|----------
D|-9b--9b--9h7------9-7--|7-/9---------9----------|----12-14~-|---------------|----------
A|-------------9-----------|------------------------|-------------|---------------|----------
E|-------------------------|------------------------|-------------|---------------|----------

-------------------------------------|-----------------||
-----17-17-17-17---------------17-17-|--12-------------||
-16b-------------14-15-16~---16-16-|--12b------------||
-------------------------------------|------14-12-14-||
-------------------------------------|-----------------||
-------------------------------------|-----------------||

SOLO DE SAXO 1:
                                                             PRE-VERSO      verso
guitarra: [ RE5--MI5-LA5--RE5--LA5--MI5--LA5] Y-...   E|------------------|-----|
                                                      B|------------------|-----| 
                                                      D|9-9-9-9-9-9--7--0-|-----|
                                                      G|9-9-9-9-9-9--7--0-|-----|
                                                      A|7-7-7-7-7-7--5--0-|-7-|
                                                      E|------------------|-5-|

BAJ0 durante el solo de saxo


       RE              MI                  LA                  RE                 LA
E|------------------|------------------|------------------|------------------|------------------| 
B|------------------|------------------|------------------|------------------|------------------| 
G|-5---5---3-2--0-2-|--7--7--5-4----4--|------------------|-5---5---3-2--0-2-|------------------|
D|------------------|------------7-----|-5---5---3-2--0-2-|------------------|-5---5---3-2--0-2-|

     MI                LA                 PRE-VERSO           verso
-|------------------|------------------|-------------------|------|
-|------------------|------------------|-------------------|------|
-|--7--7--5-4----4--|------------------|-7-7-7-7-7-7--5p0--|------|x1
-|------------7-----|-5---5---3-2--0-2-|-------------------|-5--|



VERSO 3: igual al 1 guitarra
  LA                                 RE          LA                           RE    RE
E|---------------------------------|--------|--------------------------------|-----|--------|---
B|---------------------------------|3----3|--------------------------------|3--|-3-3-3-3|---
G|-------2---2-2----2---2-2------|2----2|-------2---2-2----2---2-2-----|2--|-2-2-2-2|----
D|-------2-4-2-2-4--2---2-2------|0----0|-------2-4-2-2-4--2---2-2-----|0--|-0-0-0-0|---
A|7------0-----0--0---0---2-3-4|--------|7------0-----0--0---0---3-2-|-----|--------|---
E|5------------------------------|--------|5-----------------------------|-----|--------|----
                              PM...
          MI
E|-----|----------------------------||
B|-----|---------9---7------5~----||
G|-----|----------------------------||
D|--LA-|--9--9---9---7--5---------||
A|-----|--7-----------------------||
E|-----|----------------------------||

BAJO:      LA                            RE x 2           LA X2        re x3  la X2    MI
G|---------------------------------||---------------||--------------||------||-----||--------|
D|---------------------------------||---------------||--------------||-RE=--||-LA=-||--------|
A|------------------------0---2-3-4||-5-5--3-2--0-2-||--------------||-X-3--||-X-2-||-7----|
E|5--------5------5------------||---------------||-5-5--3-2--0-2||------||-----||--------|


LA
 Susanita... tan bonita!
RE                         LA
  una nena que tu padre trajo
RE
  vino un gato y festejo a la nena 
              LA
que tu padre trajo

             MI + riff 1
Asi es este amor
            LA puente
no television


PUENTE: igual a intro  pero X3
 
Guitarra                                                                          
            LA                                MI                                      PRE-verso
E|------------------------------------|---------------------------------------|  |------------|-|
B|------------------------------------|---------------------------------------|  |------------|-|
G|------------------------------------|---------------------------------------|X2|------------|-|
D|-2---4--2--4---2-2---2-4-2-2-------2|---------------------------------------|  |--9-9--7-7-0|-|
A|-0---0--0--0---0-0---0-0-0-0--3-4--0|--2-2--4-2--5-2--4-2--2--4-2--5-2--4-|  |/-7-7--5-5-0|7|
E|------------------------------------|--0-0--0-0--0-0--0-0--0--0-0--0-0--0-|  |------------|5|
 BAJO:     LA                                    MI   
E|------------------------------------|---------------------------------------|  |------------|-|
B|------------------------------------|---------------------------------------|  |------------|-|
G|------------------------------------|--7--7--5-4----4------7---7--5-4----4--|X2|7777----5p0-|-|
D|-5---5---3-2--0-2---5---5---3-2--0-2|------------7--------------------7-----|  |------------|5|


"no television....   no no...ey....    no television...  no..no..ey.ey..     no television"


SOLO DE SAXO FINAL:


Guitarra;  [ RE5--MI5-LA5--RE5--LA5--MI5-] y el "FINAL"


BAJ0 durante el solo de saxo
       RE              MI                  LA                  RE                 LA
E|------------------|------------------|------------------|------------------|------------------| 
B|------------------|------------------|------------------|------------------|------------------| 
G|-5---5---3-2--0-2-|--7--7--5-4----4--|------------------|-5---5---3-2--0-2-|------------------|
D|------------------|------------7-----|-5---5---3-2--0-2-|------------------|-5---5---3-2--0-2-|

     MI          final  re    fa#    la´    LA  
-|------------------|-----|------|------|----------------||
-|------------------|-----|------|------|----------------||
-|--7--7--5-4----4--|-5-|--9-|-12-|----------------||
-|------------7-----|-----|------|------|--5-----------||


  Guitarra:    final   re5   fa#5   la´5    LA5 
                    |-----|-------|------|----------------||
                    |-----|-------|------|----------------||
                    |-7-|--11-|-14-|----------------||
                    |-7-|--11-|-14-|-7------------||
                    |-5-|--(9-)-|-12-|-7--777777-7||
                    |-----|-------|------|-5--555555-5||

fin.

Fuente original ATAME [www.atame.org]
Colaborador original: GUILLE [elguille665@hotmail.com]

Fuente: tusacordes.com