a b c d e f g h i j k l m n o p q r s t u v w x y z 0-9

Superlogico

Patricio Rey Y Sus Redonditos De Ricota

			
INTRO : 

      
*Skay Bellinson guitarra
   
E|-------------------|-------------------|-------------------|------------------|
B|-------------------|-------------------|-------------------|------------------|
G|-------------------|-------------------|-------------------|------------------|
D|---------4-6-7-6-4-|-------4-6-7-6-4---|---------4-6-7-6-4-|------4-6-7-6-4-0-|
A|------4------------|--4-5--------------|------4------------|-4-5--------------|
E|-7-7---------------|-------------------|-7-7---------------|------------------|

*Semilla Bucciarelli BAJO
          
    FA#                      RE                FA#                 RE       
G|-------------------|-------------------|-------------------|------------------|
D|-------------------|-------------------|-------------------|------------------|
A|-------------------|----5-----5-5----|-------------------|---5----5--5----|
E|------2----2-2---|-------------------|--2----2--2------|------------------|


*Skay Bellinson guitarra

E|-------------------|-------------------|-------------------|---------|--------|
B|-------------------|-------------------|-------------------|---------|--6--7--|
G|-------------------|-------------------|-------------------|---------|--|__|--|
D|---------4-6-7-6-4-|-------4-6-7-6-4---|--------4-6-7-6-4--|--3--4---|--------|
A|------4------------|--4-5--------------|-----4-------------|--|__|---|--------|
E|-7-7---------------|-------------------|-7-7---------------|---------|--------|
                                                              [   X 4  -   X 4  ]

*Semilla Bucciarelli BAJO

    FA#                      RE                FA#              fa-fa#    FA-fa#         
G|-------------------|-------------------|-------------------|---------|--------|
D|-------------------|-------------------|-------------------|--3--4---|--------|
A|-------------------|----5-----5-5----|-------------------|---------|--------|
E|------2----2-2---|-------------------|--2----2--2------|---------|--1--2--|
                                                                 X 4      X 4



1er VERSO:


---------

*Skay Bellinson guitarra

E|-------------------|-------------------|-------------------|------------------|
B|-------------------|-------------------|-------------------|------------------|
G|-------------------|-------------------|-------------------|------------------|
D|---------4-6-7-6-4-|-------4-6-7-6-4---|---------4-6-7-6-4-|------4-6-7-6-4-0-|
A|------4------------|--4-5--------------|------4------------|-4-5--------------|
E|-7-7---------------|-------------------|-7-7---------------|------------------|
      
    FA#                      RE                FA#                 RE       
G|-------------------|-------------------|-------------------|-------------------|
D|-------------------|-------------------|-------------------|-------------------|
A|-------------------|----5-----5-5----|-------------------|---5----5--5-----|
E|------2----2-2---|-------------------|--2----2--2------|-------------------|


 Ahí van los machos para consumar...        una hermosa dotación vital...



1er ESTRIBILLO:


--------------

SKAY BELLINSON
E|-------------------|-------------------|-------------------|---------|--------|
B|-------------------|-------------------|-------------------|---------|--6--7--|
G|-------------------|-------------------|-------------------|---------|--|__|--|
D|---------4-6-7-6-4-|-------4-6-7-6-4---|--------4-6-7-6-4--|--3--4---|--------|
A|------4------------|--4-5--------------|-----4-------------|--|__|---|--------|
E|-7-7---------------|-------------------|-7-7---------------|---------|--------|
                                                              [   X 4  -   X 4  ]
* BAJO         
    FA#                      RE                FA#              fa-fa#    FA-fa#         
G|-------------------|-------------------|-------------------|---------|---------|
D|-------------------|-------------------|-------------------|--3--4---|---------|
A|-------------------|----5-----5-5----|-------------------|---------|---------|
E|------2----2-2---|-------------------|--2----2--2------|---------|--1--2---|
                                                                 X 4      X 4

Superlógico  ¡Sí!    Superlógico ¡Sí!...     Superlógico      ¡Sí sí sí...




PUENTE:


------

*Skay Bellinson guitarra

E|------------------------------|-----------------------------------|
B|------------------------------|-----------------------------------|
G|------4~~---------------------|------4b~~-------------------------|
D|-----------7--6--4--6--4------|------------7--6--4--6--4~~~-------|
A|---5----------------------7---|-4--5------------------------------|
E|------------------------------|-----------------------------------|

*Semilla Bucciarelli BAJO
                                                                                 
G|------------------------------|-----------------------------------|
D|------------------------------|-----------------------------------|
A|---5-2----------------------|-4--5-2--------------------------|
E|-----------5--4--2--4--2--0---|------------5--4--2--4--2-x--------|




2do VERSO:

  Notas iguales que en el Primero
---------


El club de mantis muy nervioso está, 
esas hembras no son dulces, no.





2do ESTRIBILLO:

 Notas iguales que en el Primero
--------------

Superlógico ¡Sí! Superlógico ¡Sí!
Superlógico ¡Sí sí sí...!





SOLO DE GUITARRA:   EL SOLO LO ESTOY SACANDO SI LO CONSEGUIS MANDALO ,
ESO ME AYUDARIA BASTANTE
----------------

*Skay Bellinson Guitarra

E|------------------------------------------------------------------------------|
B|------------------------------------------------------------------------------|
G|------------------------------------------------------------------------------|
D|------------------------------------------------------------------------------|
A|------------------------------------------------------------------------------|
E|------------------------------------------------------------------------------|



BAJO:  Durante el Solo de Guitarra

    FA#      RE        FA#      RE        FA#      RE     FA#      RE
G|--------|--------|--------|--------|--------|--------|--------|--------|
D|--------|--------|--------|--------|--------|--------|--------|--------|
A|--------|--5--5|--------|--5--5|--------|--5--5|--------|--5--5|
E|-2--22|--------|-2--22|--------|-2--22|--------|-2--22|--------|
      
    FA#m      RE     FA#m      RE         FA#m     RE     FA#m       RE      DO#    DO# 
G|---------|-------|---------|--------|---------|-------|---------|--------|-------|----|
D|------4|-------|------4|--------|------4|-------|------4|--------|-------|----|
A|---0-4---|-5--5|---0-4---|--5--5|---0-4---|-5--5|---0-4---|--5--5|--4-4|-4-4|
E|-2-------|-------|-2-------|--------|-2-------|-------|-2-------|--------|-------|----|




3er VERSO:

  Notas iguales que en el Primero
---------

Tal orgía van a banquetear.
Sin descanso van a devorar.




3er ESTRIBILLO:

 Notas iguales que en el Primero
--------------

Súper rígido ¡Sí! Súper rígido ¡Sí!
Súper rígido  ¡Sí sí sí...!



PUENTE:


------

*Skay Bellinson guitarra

E|------------------------------|-----------------------------------|
B|------------------------------|-----------------------------------|
G|------4~~---------------------|------4b~~-------------------------|
D|-----------7--6--4--6--4------|------------7--6--4--6--4~~~-------|X 2
A|---5----------------------7---|-4--5------------------------------|
E|------------------------------|-----------------------------------|

*Semilla Bucciarelli BAJO
                                                                                 
G|------------------------------|-----------------------------------|
D|------------------------------|-----------------------------------|X 2
A|---5-2----------------------|-4--5-2--------------------------|
E|-----------5--4--2--4--2--0---|------------5--4--2--4--2-x--------|



4to VERSO:

  Notas iguales que en el Primero
---------

El rostro se comienza a afiebrar.
Esas hembras no son dulces, no.



4to ESTRIBILLO:

 Notas iguales que en el Primero
--------------

Superlógico ¡Sí! Superlógico ¡Sí!
Superlógico ¡Sí sí sí...!




SOLO DE SAXO:

          
------------     CON LAS MISMAS NOTAS DE LOS VERSOS Y ESTRIBILLOS


CORO:    Superlógico ¡Sí! Superlógico ¡Sí! ......     ASÍ HASTA EL FINAL



NOTACION:

x: nota muerta o apagada.
b: bend o en castellano: estirar cuerda
~~: efecto de vibrato 
/: slice o deslizar. 
: dejar sonar



mandenme tabs de los redondos sobre todo los solos y los riff´s 
asi los saco a todos bien completos ,,,
elguille665@hotmail.com



                                                                           Fin.
...............................................................................

Fuente original ATAME [www.atame.org]
Colaborador original: GUILLERMO [elguille665@hotmail.com]

Fuente: tusacordes.com